Anouk – Michel

<- terug naar het songoverzicht

Niveau: xx (2/5)

Words and music by ANOUK TEEUWE, BART VAN VEEN

Anouk – Michel

CAPO 1st

Intro riff:


[Intro]

e|----0------0------0------0---|
B|-3-3-3--3-3-3--3-3-3--3-3-3--|
G|--2---2--2---2--2---2--2---2-|
D|-----------------------------|
A|-----------------------------|
E|-----------------------------|


e|----0-------0------0---0--0------0------0------0---0--0---|
B|---3-3-----3-3----3-3---3--3----3-3----3-3----3-3---3--3--|
G|--2---2---2---2--2---2---2--2--2---2--2---2--2---2---2--2-|
D|-0----------------------------0---------------------------|
A|---------0---------------------------0--------------------|
E|----------------3---------------------------3-------------|


[Verse]

e|----0-------0------0----0--0--|
B|---3-3-----3-3----3-3----3--3-|
G|--2---2---2---2--2---2----2--2|
D|-0----------------------------|
A|---------0--------------------|
E|----------------3-------------|   4x

Hey Michel how's life are you ok
I wonder if you ever think of me
It's been 9 years since that kiss...
I can't help but reminisce.
Hey Michel do you remember

Bij het chorus zetten we in met slagjes. 
Het slagritme : | ^  ^  ^v^  ^v^v |

 

[Chorus]

| D |
We walked the street to the beat
| A | G | G |
Hand in hand you and me
| D |
Smiling faces so in love
| A | G |
Hoping that they all could see
| A | D | A | G |
That we belonged together you and me against the world
| A | D | A | G |
But we found out the hard way cause it wasn’t meant to be

  G
e|---------0------|-0--------0------|
B|-------3---3----|---3--------3----|
G|-----0-------0--|-----0--------0--|
D|----------------|-----------------|
A|----------------|-----------------|
E|--3-------------|-----------------|

[Interlude]

e|----0-------0------0---0--0------0------0------0---0--0---|
B|---3-3-----3-3----3-3---3--3----3-3----3-3----3-3---3--3--|
G|--2---2---2---2--2---2---2--2--2---2--2---2--2---2---2--2-|
D|-0----------------------------0---------------------------|
A|---------0---------------------------0--------------------|
E|----------------3---------------------------3-------------|

2x 

[Verse]

(picking)
| D | A | G | G |
You were my first and worst love
| D | A | G | G |
And so it only could go wrong
| D | A | G | G |
But ain’t that just the way you learn
| D | A | G | G |
Hey Michel I just wanted to let you know
| D | A | G | G |
That someone else has stolen my heart
| D | A | G | G |
And now another girl has caught your eye
| D | A | G | G |
That doesn’t mean I don’t think of you
| D | A | G | G |
I am just hoping that she’ll treat you right

Do you remember

 

[Chorus]

| D | (strumming)
We walked the street to the beat
| A | G | G |
Hand in hand you and me
| D |
Smiling faces so in love
| A | G |
Hoping that they all could see
| A | D | A | G |
That we belonged together you and me against the world
| A | D | A | G |
But we found out the hard way cause it wasn’t meant to be

[End]

(picking)
| D | A | G | G |

| D | A | G | G |
It was just a silly dream
| D | A | G | G |
lalalaaah laah laah laah laah
| D | A | G | G |
lalalaaah laah laah laah laah laah
| D | A | G | G |
lalalaaah laah laah laah laah
| D | A | G | G |
Hey Michel, do you remember

<- terug naar het songoverzicht

error: Content is protected !!