Ben Howard – Fear

<- terug naar het songoverzicht

Niveau: xxx (3/5)

Words and music by BENJAMIN JOHN HOWARD AND CHRIS BOND.

Ben Howard – Fear

CAPO 4th & Tuning C G C G G C.

Deze song spelen met een zogenaamde Open C stemming. De snaren noteren achtereenvolgens C G C G G C. Dat valt nog niet mee om eerst die gitaar juist te stemmen. We doen dit als volgt:

De 5e snaar brengen we naar de G. Dat is één toon omlaag. De 5e snaar = 3e vakje van de 6e snaar. Vervolgens brengen we de 6e snaar (E) naar de C. Dus twee tonen omlaag. 5e vakje 5e snaar moet overeenkomen met de 6e snaar.

Dan de 4e snaar. D -> C. Dus 1 toon omlaag. Dus het 5e vakje van de 5e snaar (de C nu) moet overeenkomen met ook de 4e snaar. De 3e snaar is al goed (G).

De 2e snaar moet een stuk naar beneden naar de G. Moet hetzelfde klinken als de 3e snaar (G). De 1e snaar moet ook 2 tonen omlaag van E -> C. Het 5e vakje van de 2e snaar is een C. Terugstemmen is gelukkig makkelijker! Gebruik hiervoor deze pagina.

Nu zetten we een CAPO in het vierde vakje. De song start met het stukje waarbij meteen ook de trillers (noot-hamer-pull) gebruikt worden (zie pijltje). Start na de maatregel meteen door weer een volgende maatregel. Dan blijft ie doorlopen. Zorg er daarom voor dat de je de trillers hamert met de wijsvinger (i). Dan kan je mooi die vinger weer gebruiken voor het neerzetten van de eerste noot op de volgende regel. Die noot kan namelijk enkel met de wijsvinger, anders lukt het neerzetten van de overige noten niet.

Heb je meer tijd nodig voor de trillers? Speel dan de noten tussen haakjes niet!

Riff 1:

  A                              G
c|------------------------------------------------------------------------| 
G|------------------------------------------------------------------------| 
G|--4-2-4-4--2p0--4-2-4-4-2p0-----4-2-4-4--2p0---4-2-4---------4-2-0------| 
C|------------------------------------------------------------------------| 
G|-2-2-2-2-------2-2-2-2---------0-0-0-0--------0-0-0---------------------| 
C|------------------------------------------------------------------------|

Start Song ->
  A                              G 
c|------------------------------------------------------------------------| 
G|------------------------------------------------------------------------| 
G|--4-2-4-4--2p0--4-2-4-4-2p0-----4-2-4-4--2p0----(4)-(2)-(4)-------------| 
C|--------------------------------------------------------------------0h2-| 
G|-2-2-2-2-------2-2-2-2---------0-0-0-0--------(0)-(0)-(0)-------0h2p0---| 
C|------------------------------------------------------------0h2p0-------|

De bovenstaande riff spelen we 1 maal alvorens de tekst start. Speel de bassnaren met je duim. De hoge snaren afwisselend met je wijs- en middelvinger (wisselslag).

Het neerzetten van de vingers voor Riff 1 is de makkelijkste wijze als volgt; de wijsvinger van je linkerhand voor de (5e) bassnaar, de middelvinger voor het 2e vakje en de pink voor het 4e vakje.

Persoonlijk vind ik dit een song uiterst geschikt voor het gebruik van een looppedaal en denk ik dat live dit nummer enkel op deze wijze te performen is . De Riff 1 speel je eenmaal (in front of publiek zaal) om deze op te slaan in het looppedaal. Vervolgens laat je het looppedaal de Riff 1 herhalen. Zo is het een stuk eenvoudiger om tijdens het zingen het ritme vast te houden.

Start het refrein, dan druk je het looppedaal uit en speel je Riff 2. Na het refrein laat je het pedaal Riff 1 weer overnemen. Merk op dat na het gebruik van Riff 3, Riff 1 niet meer voorkomt in de song. Riff 3 is in het begin zonder zang en kan dus op eenzelfde manier worden overgenomen met het looppedaal. Bij het refrein (riff 2) speel je vervolgens weer.  Uiteindelijk eindigen met de opgeslagen Riff 3 in de outro.

Riff 2:

  C                  C                 Em                D       
c|-----0------0-----|----0-----0------|----4-----4------|----2-----2------| 
G|--7-----7-------7-|-7-----7-------7-|-4--4--4--4----4-|-2--2--2--2----2-| 
G|--0-----0-------0-|-0-----0-------0-|-0--0--0--0----0-|-0--0--0--0----0-| 
C|------------------|-----------------|-4-----4-------4-|-2-----2-------2-| 
G|/5--5--5--5----5--|5--5--5--5----5--|-----------------|-----------------| 
C|------------------|-----------------|4--4--4--4----4--|2--2--2--2----2--|
Riff 3:
 
c|-----------------|-----------------|---------------2-|-----------------|
G|--/9---9---9---7-|---9---7---4-----|---2---2---4-----|---4---2p0-------|
G|-----------------|-----------------|-----------------|-----------------|
C|-----------------|-----------------|-----------------|-----------------|
G|-----------------|-----------------|-----------------|-----------------|
C|-0---0---0---0---|-0---0---0---0---|-0---0---0---0---|-0---0-----------|

Het hele liedje ziet er dan als volgt uit:

Intro = 1x Riff 1           

Verse 1 = 4x Riff 1
 
A                                       G
Mama, cold hearted child, tell me how you feel
       A                                   G
Just a blade in the grass, spoke unto the wheel
A                                                G
Mama, cold hearted child, tell me where it's all gone
A                                                  G
The luster of your bones, those arms that held you strong
 
 
Chorus = 3x Riff 2
 
C9        C9                        Em        D        
I been worryin', I been worryin' that my time is a little unclear
C9        C9                        Em         D            
I been worryin', I been worryin' that I'm losing the one's I hold dear
C9        C9                        Em          D                         
I been worryin', I been worryin' that we all live our lives ..
.. in the confines of fear
 
 
Verse 2 = 4 x Riff 1 
 
A                                         G
My my, cold hearted child, tell me how you feel
A                                                  G
Just a grain in the morning air, dark shadow on the hill
A                                              G
My my, cold hearted child, tell me where it all fall's
A                                              G
Oh this apathy you feel will make a fool of us all
 
 
Chorus = 3 x Riff 2
 
C9          C9          Em        D        
I been worryin', I been worryin' that my time is a little unclear
C9          C9          Em         D            
I been worryin', I been worryin' that I'm losing the one's I hold dear
C9          C9          Em         D                         
I been worryin', I been worryin' that we all live our lives ..
.. in the confines of fear
 
 
Interlude = 8x Riff 3

Riff 3:
 
c|----------------------2----------|
G|--9-9-9-7-9-7-4-2-2-4---4-2p0----|
G|---------------------------------|
C|---------------------------------|
G|---------------------------------|
C|-0-0-0-0-0-0-0-0-0-0-0-0-0-------|
 
Then..
 
Oh I will become what I deserve  = 8x Riff 3
 
I been worryin', I been worryin',
 
I will become what I deserve
 
I been worryin' that my time is a little unclear
 
I will become what I deserve
 
 
Chorus = 3x Riff 2
 
C9          C9               Em        D        
I been worryin', I been worryin' that my time is a little unclear
C9          C9               Em         D            
I been worryin', I been worryin' that I'm losing the one's I hold dear
C9          C9               Em     D
I been worryin', I been worryin' that we all live our lives ..
..  in the confines of fear  


Outro = 1x Riff 3

 

<- terug naar het songoverzicht

error: Content is protected !!