Coldplay – Don’t Panic

<- terug naar het songoverzicht

Niveau: x (1/5)

Words and music by Christopher Anthony John Martin, Jonathan Mark Buckland, William Champion, Guy Rupert Berryman

Coldplay – Don’t Panic

Dit is een typische slaggitaar song die je kan doen na de eerste lessen barbaarse pop. Het slagritme voor elke maat ziet er dan als volgt uit:

Fmaj7: xx3210 (vingers ook 321).

Intro:  | Am | Am | Am | Am …

Verse: (couplet)

| Am |   C   | Fmaj7 | Fmaj7 |    Bones sinking like stones, all that we’ve fought for
| Am |   C   | Fmaj7 | Fmaj7 |    Homes, places we’ve grown, all of us are done for
| Dm | Dm |   Am     |     G       |    We live in a beautiful world, yeah we do, yeah we do
| Dm | Dm | Fmaj7 | Fmaj7 |    We live in a beautiful world…

2x

Harmonica:  | Am |   C   | Fmaj7 | Fmaj7 | 2x

Chorus: (refrein)

| Dm | Dm |   Am     |     G       |    We live in a beautiful world, yeah we do, yeah we do
| Dm | Dm | Fmaj7 | Fmaj7 |    We live in a beautiful world…

Interlude: (tussenspel)   | Am |   C   | Fmaj7 | Fmaj7 | 2x

| Am |   C   | Fmaj7 | Fmaj7 |    Oh all that I know, there’s nothing here to run from
| Am |   C   | Fmaj7 | Fmaj7 |    Cause here, everybody here’s got somebody to lean on

Gitaristen die verder zijn:

Eventueel kan je zoals je in de sample kan horen fingerpicking gebruiken om af te wisselen. Meestal begin je bij de laagste bassnaar van een akkoord. Het akkoord Am begint op de vijfde snaar (de 2e bassnaar) net als C. Het akkoord G begint op de zesde snaar en het akkoord Fmaj7 op de vierde (spreek uit F-major-seven of F masjeur zeven). Bij de achtereenvolgende akkoorden begin je dus te spelen op de volgende snaar met het fingerpicking patroon:

  • Am dus de vijfde snaar
  • C de vijfde snaar
  • G de zesde snaar
  • Fmaj7 en Dm de vierde

Je loopt dan vier tonen omhoog en vervolgens weer drie naar beneden vanaf deze eerste bassnaar. De bassnaar is dus de beginsnaar van de arpeggio (een uit elkaar getrokken akkoord). Hieronder:


e|-(Am)-----------|-(C)-----------|-(Fmaj7)---0-------|-(Fmaj7)---0-------|
B|-------1--------|-------1-------|---------1---1-----|---------1---1-----|
G|-----2---2------|-----0---0-----|-------2-------2---|-------2-------2---|
D|---2-------2----|---2-------2---|-----3-------------|-----3-------------|
A|-0--------------|-3-------------|-------------------|-------------------|
E|----------------|---------------|-------------------|-------------------| 2x

e|-(Dm)--1-----|-(Dm)--1-----|---(Am)---------|-(G)------------|
B|-----3---3---|-----3---3---|---------1------|----------------|
G|---2-------2-|---2-------2-|-------2---2----|---------0------|
D|-0-----------|-0-----------|-----2-------2--|-------0---0----|
A|-------------|-------------|---0------------|-----2-------2--|
E|-------------|-------------|----------------|---3------------|

e|-(Dm)--1-----|-(Dm)--1-----|-(Fmaj7)-------0---|-(Fmaj7)-----------|
B|-----3---3---|-----3---3---|---------1---------|-------------------|
G|---2-------2-|---2-------2-|-------2---2-------|-------------------|
D|-0-----------|-0-----------|-----3-------3-----|-------------------|
A|-------------|-------------|-------------------|-------------------|
E|-------------|-------------|-------------------|-------------------|

<- terug naar het songoverzicht

error: Content is protected !!