Elvis Presley – Heartbreak Hotel

<- terug naar het songoverzicht

Niveau: xx (2/5)

Words and music by ELVIS PRESLEY.

Elvis Presley – Heartbreak Hotel

Alvorens aan deze song te beginnen is het een goede voorbereiding om les 6E en 7E gedaan te hebben. Ze geven en introductie in de blues en boogie woogie licks. We spelen deze song ook met linker- hand- muting. Bekijk ook deze les alvorens te beginnen met deze song.  We gebruiken ook voor deze song weer hetzelfde bluesschema. Nu starten we in E. Dan ziet het schema er zo uit:

A B C D E F G A

1  2          5

Dus A, B en E.

We starten met E, dan 1 = A en 2 = B.

| E | E | E | E |     (bekijk de video hoe de linkerhand – muting te gebruiken)

| A7 | A7 | E | E |     Een alternatieve A7 (uit de video) is die met een barré:

A7 = x02223.

| B7 | A | E | B7 |

Slagje: (met linkerhand en rechterhand muting)

| ^v xv  v^v | ... etc.  Bij de laatste helft van de maat leg je je linker-
    (^)                   hand op de snaren. Een manier van left hand muting.


Zonder linkerhand muting:

| ^v xv .... | bij eerste 4 maten...
| ^v xv  v^v | bij de rest van het schema...

De video laat het slagje zien en de solo. De solo als je weet hoe je een barré moet leggen.

De solo:
                                                  4b5 (speel in het
                                                  vierde vakje, maar
                                                  duw de snaar boven
                                                  tot de toon van het
                                                  5e vakje) 
  E                E              E               |
E------------------|-----------------|-----------------|-0-0-0-0-0-0-0---|
B--5-5-5---3-5-----|-5-5-5---3-5/----|-5-5-5---3-5-----|-4-4-4-4-4-4-4/--|
G--------4---------|-------4---------|-------4---------|-----------------|
D------------------|-----------------|-----------------|-----------------|
A------------------|-----------------|-----------------|-----------------|
E------------------|-----------------|-----------------|-----------------|

Vingers links:
   3 3 3 2 1 3       3 3 3 2 1 3       3 3 3 2 1 3       3 3 3 3 3 3 3

  A                  A                 B7               E
E----3-------------|---3-------------|-----------------|-----------------|
B---------3-5------|-------3-5-3-----|-----------------|-----------------|
G-------4----------|-----4-------4---|-----2---2-4-2---|-0--------1----1-|
D------------------|-----------------|-----------------|-----------------|
A--0---------------|-0---------------|-0-2-------------|-----------------|
E------------------|-----------------|-----------------|------0----0-0---|
                                         |gebruik een barré

 

<- terug naar het songoverzicht