Lesson 4E Slides

<- Next Lesson

Slides

Een ‘Slide’ is natuurlijk geen bananen schil, maar is het toeglijden naar een noot of akkoord vanaf een noot of akkoord dat al is aangeslagen. Zo hoor je het glijden naar de noot toe… Een slide is dus het verschuiven van je speelhand naar een andere positie op de hals, zonder de ingedrukte snaar los te laten terwijl je de noot al hoort.

Het wordt al een beetje veel denk ik voordat we gaan oefenen met de stof en het meer inzichtelijk zal worden. Nog heel even volhouden!

Ook in TAB hebben we hier symbolen voor bedacht.

/ = slide omhoog
\ = slide omlaag

Nou zou ik niet weten welke van de twee omhoog of omlaag is. Dat maakt ook niet uit. In de TAB zien we vanuit welke noot we starten en waar we heen moeten dus zien we vanzelf of we omhoog of omlaag moeten. Even een illustratie:

E-----------------------------------------------
B-------7/9-------------------------------------
G-----------------------------------------------
D-----------------------------------------------
A-----------------------------------------------
E-----------------------------------------------

We staan met een vinger (de derde bijv.) in het zevende hokje, slaan de noot aan en schuiven naar het negende hokje.

E-----------------------------------------------
B-------/7-9------------------------------------
G-----------------------------------------------
D-----------------------------------------------
A-----------------------------------------------
E-----------------------------------------------

Dit kan ook. De slide begint dan ‘ergens’. Er is niet precies aangegeven waar. Dit mag je zelf invullen. Het effect dat hiermee bedoeld wordt is dat je de noot vanuit de diepte inzet en dan naar de noot toeschuift. Ik zou hier de wijsvinger laten sliden terwijl ik de snaar heb aangeslagen naar het zevende hokje vanuit… hokje drie ofzoiets. Vervolgens zet ik de volgende noot neer met mijn derde vinger terwijl mijn wijsvinger blijft staan en sla ik de tweede noot aan.

E-----------------------------------------------
B-------/7-9-7\---------------------------------
G-----------------------------------------------
D-----------------------------------------------
A-----------------------------------------------
E-----------------------------------------------

Het omgekeerde kan ook. We weten dan niet precies waar we de moeten eindigen met de ‘slide’. We schuiven nu terug vanaf het zevende hokje nadat we hebben aangeslagen. De noot valt dan plotseling omlaag wanneer deze uitklinkt.

Oefeningen

Dan zijn we nu eindelijk toe aan een aantal oefeningen om de net gepresenteerde theorie eens om te zetten in praktijk.

Eerst de ‘hammer’:

  Am               C                 G            +Am
E-----------------|-----------------|------------|---
B--------0h1------|--------0h1------|-----0------|---
G------2-----2----|------0-----0----|----0----0--|---
D----2---------2--|----2---------2--|---0------0-|---
A--0--------------|--3--------------|------------|---
E-----------------|-----------------|-3----------|---

Vingers rechts:
   p i m a   m i
Vingers links:
   0 2 3 0h1 3 2

Dan de ‘hammer en de pull’:

  Am               C                  G             +Am
E-----------------|------------------|----------------|
B---1-1---1h3p1---|---1-1---1h3p1----|---0-0---0h1p0--|
G---2-----------2-|---0------------0-|---0----------0-|
D---2-------------|---2--------------|---0------------|
A-0---------------|-3----------------|----------------|
E-----------------|------------------|-3--------------|

Vingers rechts:
     a i   i                                   
     m           m
     i
   p
Vingers links:
     1 1   1 4 1                               0 1 0
     3           2
   0 2 

Laten we de ‘bend’ maar eens uitproberen… We komen nog zeker terug bij ‘bending’, ‘hamer’ en ‘pull off’ als we met Solo’s aan de gang gaan. Daar worden deze technieken dan ook het meest gecombineerd. Maar soms zul je een ‘interlude’ of tussenspel stukje tegenkomen in een popsong waarmee je net even de show kan stelen…

 A                 A
E-----------0-----|---------------------|
B----2----0----2--|---------------------|
G----2----2----2--|--4-2-4-4b5r4-2-2~v--|
D----2----2----2--|---------------------|
A--0----0------0--|---------------------|
E-----------------|---------------------|

Vingers rechts:
    a     a a  a
    m     m    m     i m i m    i m 
    i     i    i
  p     p      p
Vingers links:
    3     3 3  3
    2     2    2     3 1 3 3    1 1
    1     1    1
  0     0      0

Op een western of steelstring/akoustisch gitaar is ‘bending’ maar lastig. Vooral op de bassnaren. Geen beweging in te krijgen!

En nu de slide… en een aantal technieken die we nu gehad hebben uit het liedje Jace Everett -Bad Things.

De volgende oefening gaat denk ik in moeilijkheid veel te snel. Andere nummers om eerst mee te oefenen zijn:

  • Jack Johnson – Banana Pancakes
  • Eric Clapton – Layla (moeilijk!)
  • Eric Clapton – Signe (moeilijk!)
  • Natuurlijk straks heel veel nummers uit de blues en rock… (riffsongs)
e|-(Em)----------|-(B7)---------------|(Em)------------|-(Em)-----------------|
B|---------------|--------------------|----------------|----------------------|
G|-5-4-2---------|--------------------|----------------|-0h2p0----------------|
D|---------5-4-2-|-4-2-4/5---/7-5-7/9-|-10-9-7---5-4-2-|------0h2p0-----------|
A|---------------|--------------------|----------------|-----------0h2p0------|
E|---------------|--------------------|----------------|----------------3v~p0-|

 

<- Next Lesson