Goo goo dolls – Name

<- terug naar het songoverzicht

Niveau: xxx (3/5)

Words and music by JOHN RZEZNIK

Goo Goo Dolls – Name

Tuning D A D A A E

Eerste die gitaar stemmen naar die speciale stemming. We laten de zesde snaar zakken van de E naar de D (drop D). Het 7e vakje van de 6e snaar komt overeen met de 5e snaar.

De derde snaar (G) draaien we omhoog naar de A. Het 2e hokje op de 3e snaar (B) komt dan overeen met de 2e snaar.

De 2e snaar (B) laten we zakken naar de A. De 2e snaar komt dan overeen met de 3e snaar.

Gebruik voor het spelen van de riff de duim voor de lage snaren. De wijs-, middel- en ringvinger voor de hoge snaren (3 snaren verste van je af…). Voor iedere snaar één vinger afzonderlijk. Denk aan de arpeggio manier van aanslaan. Meer duidelijkheid hieronder.

Verse Riff:

Aanslaan rechterhand:
       a        a
       m       m
     i  i    i  i
     
   p       p       etc.
e------0--------0--------0------0---0------|
A-------0--------0--------0----0---0-------|
A----0---0----0---0----0---0---------------|
D------------------------------------------|
A--------------------5---------------------|
D--7--------6----------------4----2----0---| 

Gebruik ook hieronder je duim!

e-----------------------------------------------------------------| 
A-----------------------------------------------------------------| 
A-----------------------------------------------------------------|
D-7--/9--/11-/14-14-14-14---14---14-----7--/9--/11-11-11-9-11-9-7-| 
A-0---0---0---0--0--0--0----0----0------0---0---0--0--0--0-0--0-0-| 
D-----------------------------------------------------------------| 
Chorus riff:

Slagje: 

  | ^ ^v v^v  | ^ ^v v^v  | ^ ^v v^v  | ^ ^v v^v  |

e---0-------------0--------------0------------0------------|
A---0-------------0--------------0------------0------------|
A---0-------------0--------------0------------0------------|
D---4-------------2--------------0------------0------------|
A---4-------------2--------------0------------0------------|
D---4-------------2--------------0------------0------------|  4x


 

 

Hele Song:

 

Verse:

And even though the moment passed me by
I still can’t turn away
‘Cause all the dreams you never thought you’d lose
Got tossed along the way
And letters that you never meant to send
Get lost or thrown away

Chorus

And now we’re grown up orphans, that never knew their names
We don’t belong to no one, that’s a shame
If you could hide beside me, maybe for a while
And I won’t tell no one your name, no I won’t tell ’em your name

Verse

And scars are souvenirs you never lose
The past is never far
Did you lose yourself somewhere out there
Did you get to be a star
And don’t it make you sad to know that life
Is more than who we are

Chorus

We grew up way too fast
And now there’s nothing to believe
And reruns all become our history
A tired song keeps playing on a tired radio

And I won’t tell no one your name
And I won’t tell ’em your name

Verse

I won’t tell ’em your name
Mmm, mmm, mmm
I won’t tell ’em your name, ow

Interlude (Chorus Riff)

Outro (Verse Riff)

I think about you all the time
But I don’t need the same
It’s lonely where you are, come back down
And I won’t tell ’em your name

 

<- terug naar het songoverzicht

error: Content is protected !!