Jace Everett – Bad Things

<- Terug naar het songsoverzicht

Niveau: xxxx (4/5)

Words and mucis by Jace Everett

Jace Everett – Bad Things

Aan het begin hoor je een intro loopje. Meteen daarna duikt de gitaar het schema in van de song. Het Em en B7 akkoord wordt steeds gespeeld met een afwisseling in de bas om het rockabilly walkin bass gevoel te krijgen…

Natuurlijk omdat rockabilly veel weg heeft uit de blues en country, immers een voorloper van de rock & roll en rock, spelen we in de shuffle. De shuffle ziet er zo uit:

Benoem maar eens het ritme; éééén ne, tweéé je, drieéé je, vieéér re… etc. (huppelen!)

Met de shuffle kom je uit op het spelen van de eerste regels akkoorden | Em | B7 | Em | Em | op de volgende manier:

e|-(Em)----------------------|-(B7)----------------------|--2x(Em)--etc.------------
B|---------------------------|---------------------------|--------------------------
G|---------------------------|---------------------------|--------------------------
D|--2-2---2-2---2-2---2-2----|--1-1---0-0---1-1---0-0----|--2-2---2-2---2-2---2-2---
A|--2-2---2-2---2-2---2-2----|--2-2---0-0---2-2---0-0----|--2-2---2-2---2-2---2-2---
E|--0-0---3-3---0-0---3-3----|---------------------------|--0-0---3-3---0-0---3-3---

Maar dit is nog te standaard… Dus we maken ervan wat we echt horen…

Het huppelt niet zoals de standaard shuffle, maar het ritme huppelt zeker… Zo ziet de tab er dan uit:

e|-(Em)-----------------|-(B7)-----------------|--2x(Em)--etc.--------|
B|----------------------|----------------------|----------------------|
G|----------------------|----------------------|----------------------|
D|--2--2-2--2--2-2--2---|--1--1-0--1--1-1--0---|--2--2-2--2--2-2--2---|
A|--2--2-2--2--2-2--2---|--2--2-0--2--2-2--0---|--2--2-2--2--2-2--2---|
E|--0--0-3--0--0-3--0---|----------------------|--0--0-3--0--0-3--0---|

In het liedje bestaat ook een regel met de akkoorden | Am | Em | B7 | Em |. We spelen deze op de volgende manier mbv arpeggio’s (de klassieke term = gebroken akkoord, niet de tonen gelijk, maar na elkaar…). De Engelse term is  ‘arpeggiated chords’ of ‘arpeggiated (finger)picking’.

e|-(Am)-------------|-(Em)-------------|--(B7)------------|-(Em)-------------|
B|---------1--------|------------------|---------0--------|------------------|
G|-----2-----2---2--|---------0--------|-----2-----2---2--|---------0--------|
D|---2---2-----2----|-----2-----2---2--|---1---1-----1----|-----2-----2---2--|
A|-0----------------|---2---2-----2----|-2----------------|---2---2-----2----|
E|------------------|-0----------------|------------------|-0----------------|

Het intro loopje waarna meteen gestart wordt met het schema. Intro: aanslag 6e snaar open, een hamer op het 2e vakje, een pull van 2 naar open, een aanslag op het 2e vakje met een bend naar de hoogte van het derde vakje en vervolgens een pull…

e|-------------------|
B|-------------------|
G|-------------------|
D|-------------------|
A|-------------------|
E|-0-h2p0-2b3p0------|

 

Nu de hele song!

 

Intro loopje …

Door naar het schema spelende in het ritme hiervoor uitgelegd:

| Em | B7 | Em | Em |    When you came in the air went out…
| Em | B7 | Em | Em |    And every shadow filled up with doubt…

Dan… fingerpicking:

| Am | Em | B7 | Em |    I don’t know who you think you are
But before the night is through…

En door: | Em | B7 | Em | Em |    I wanna do bad things with you…

Nu nogmaals hetzelfde schema:

| Em | B7 | Em | Em |    I’m the kind to sit up in his room…
| Em | B7 | Em | Em |    Heart sick an’ eyes filled up with blue…
| Am | Em | B7 | Em |    I don’t know what you’ve done to me
But I know this much is true…
| Em | B7 | Em | Em |    I wanna do bad things with you, okay…

Korte solo of tussenspel (ookwel interlude, intermezzo of instrumental):

e|-(Em)----------|-(B7)---------------|(Em)------------|-(Em)-----------------|
B|---------------|--------------------|----------------|----------------------|
G|-5-4-2---------|--------------------|----------------|-0h2p0----------------|
D|---------5-4-2-|-4-2-4/5---/7-5-7/9-|-10-9-7---5-4-2-|------0h2p0-----------|
A|---------------|--------------------|----------------|-----------0h2p0------|
E|---------------|--------------------|----------------|----------------3v~p0-|

En nogmaals hetzelfde schema:

| Em | B7 | Em | Em |   When you came in the air went out…
| Em | B7 | Em | Em |   And all those shadows there filled up with doubt…
| Am | Em | B7 | Em |   I don’t know who you think you are
But before the night is through…
| Em | B7 | Em | Em |   I wanna do bad things with you… (2x)

Solo improvisatie! Op dit laatste stuk kom ik terug bij een les solo gitaar… 🙂