Jack Johnson – Banana Pancakes

<- terug naar het songoverzicht

Niveau: xxx (3/5)

Words and music by JACK HODY JOHNSON

Jack Johnson – Banana Pancakes

[Intro & Chorus]

                          Am                              G7
E|-----------------------x-5-----------------------------x-3-|
B|-----------------------x-5-----------------------------x-3-|
G|-----------------------x-5-----------------------------x-4-|
D|-----------------------x-7-----------------------------x-3-|
A|-------5--7--5---------x-7----------5--7--5------------x-5-|
E|--5/7-----------7--5---x-5-----5/7-----------7--5--3---x-3-|

E|-----------------------x-5-----------------------------x-3-|
B|-----------------------x-5-----------------------------x-3-|
G|-----------------------x-5-----------------------------x-4-|
D|-----------------------x-7-----------------------------x-5-|
A|-------5--7--5---------x-7----------5--7--5------------x-5-|
E|--5/7-----------7--5---x-5-----5/7-----------7--5--3---x-3-|

1. Can't u see that it's just raining    there ain't no need to go outside
2. Can't u see that it's just raining    there ain't no need to go outside 
3. Can't u see that it's just raining    there ain't no need to go outside -> 4
6. Can't u see that it's just raining    there ain't no need to go outside -> 7

    D7
E|---3--3--|
B|---5--5--|
G|---3--3--|
D|---5--5--|
A|---3--3--|
E|---3--3--|

1. but baby
2. but just maybe
5. but baby


Slagritme voor verse   | ^v (^)v (^)v ^(v) | of 
           en chorus   | ^ x   v    v x    |

[Verse]
…. | G7 |
1. you hardly even notice
2. laka ukulele
5. you hardly even notice
| D7 |
1. When I try to show you
2. Mama made a baby
5. When I try to show you
| G7 |
1. This song is meant to keep you
2. Really don’t mind to practice
5. This song is meant to keep you
| D7 |
1. From doin’ what you’re supposed to
2. Because you’re my little lady
5. From doin’ what you’re supposed to
| G7 |
1. Wakin’ up too early
2. Lady, lady love me
5. Wakin’ up too early
| D7 |
1. Maybe we could sleep in
2. ‘Cause I love to lay here lazy
5. Maybe we could sleep in
| G7 |
1. Make you banana pancakes
2. We could close the curtains
5. Make you banana pancakes
| Am |
1. Pretend like it’s the weekend now
2. Pretend like there’s no world outside
5. Pretend like it’s the weekend now
| G7 |
1. And we could pretend it all the time  -> 2
2. And we could pretend it all the time -> 3
5. And we could pretend it all the time -> 6
…| Am |
4. Ain’t no need, ain’t no need
…| G7 |
mmmm mmmm
…| Am |
Can’t you see, can’t you see
…| G7 |
Rain all day and I don’t mind

[Bridge]
| Am |
But the telephone’s singing, ringing
| D |
It’s too early, don’t pick it up, we don’t need to
| Am |
We got everything we need right here
| D |
And everything we need is enough, just so easy
| Bm |
When the whole world fits inside of your arms
| Em C |
Do we really need to pay attention to the alarm
| G7 |
Wake up slow
| D7 |
mmmm mmmm
| G7 |
Wake up slow -> 5

…| Am |
7. Ain’t no need, ain’t no need
…| G7 |
Rain all day and I really, really, really don’t mind
…| Am |
Can’t you see, can’t you see
…| G7 |
You gotta wake up slow

 

<- terug naar het songoverzicht

error: Content is protected !!