Jack Johnson – No other way

<- terug naar het songoverzicht

Niveau: xxx (3/5)

Words and music by Jack Hody Johnson

Jack Johnson – No other way

Drop-D & CAPO 3rd

Voor de Drop D stemming draaien we de zesde snaar zo ver naar beneden dat het zevende hokje van de zesde snaar overeen komt met de (open) vijfde snaar. Vervolgens zetten we een capo op de derde positie.

Intro riff:

E---------------------|--------------------|--------------------|--------------------| 
B-3/5---3/5---3---0-3-|-3/5-3/5--3---3-0-3-|-3/5---3/5--3---0-3-|-3/5-3/5--3---3-0-3-| 
G---------------------|--------------------|--------------------|--------------------| 
D-0-----0-------------|-0---0--------------|-0-----0------------|-0---0--------------| 
A---------------------|--------------------|--------------------|--------------------| 
D---------------------|--------------------|--------------------|--------------------|

E---------------------|--------------------|--------------------|--------------------|
B---------------------|--------------------|--------------------|--------------------|
G------7v~------------|-----7v~------------|------0-------------|------7v~-----------|
D--7/9--------7/4-----|-7/9--------7/4-----|-7/9--------7/4-----|-7/9--------7/4-----|
A----------7/9----5-5-|---------7/9----5-5-|---------7/9----5-5-|---------7/9----5-5-|
D-0----------------0--|-----------------0--|-----------------0--|-----------------0--|
Verse riff: gebruik de p (duim), i (wijsv.) en m (middelv.):

          m  m      m     m
        i      i      i     i   i
      p           p     p     p      | etc.

  D                                   G
E------------------------------------|------------------------------|
B------------------------------------|------------------------------|
G------------------------------------|------------------------------|
D----------4--4-----4-----4----------|------5--5-----5-----5--------|
A--------5------5-----5-----5---5----|----5------5-----5-----5---5--|
D------0----------0-----0-----0------|--5----------5-----5-----5----|

  Em                  G               D                              D etc.
E------------------------------------|------------------------------|-------
B------------------------------------|------------------------------|-------
G------------------------------------|------------------------------|-------
D------2--2---------------5--5-------|------4--4-----4-----4--------|-----4-
A----2------2---2-------5------5---5-|----5------5-----5-----5---5--|---5---
D--2----------2-------5----------5---|--0----------0-----0-----0----|-0----- 
Verse riff variatie: sla aan met p (duim) en i (wijsvinger):

        i                  i
    i       i   i      i       i   i
  p   p   p   p      p   p   p   p   | etc.

  D                                   G
E------------------------------------|------------------------------------|
B------------------------------------|------------------------------------|
G------------------------------------|------------------------------------|
D-------4------------------4---------|-------5------------------5---------|
A---5-------5---5------5-------5---5-|---5-------5---5------5-------5---5-|
D-0---0--(0)--0------0---0--(0)--0---|-5---5--(5)--5------5---5--(5)--5---|

  Em                 G                D                                    D etc.
E------------------------------------|------------------------------------|--------
B------------------------------------|------------------------------------|--------
G------------------------------------|------------------------------------|--------
D-------2------------------5---------|-------4------------------4---------|------4-
A---2-------2---2------5-------5---5-|---5-------5---5------5-------5---5-|---5----
D-2---2--(2)--2------5---5--(5)--5---|-0---0--(0)--0------0---0--(0)--0---|-0---0-- 
Chorus riff:

        i                  i
    i       i   i      i       i   i
  p   p   p   p      p   p   p   p   | etc.

  D                                   D
E------------------------------------|------------------------------------|
B------------------------------------|------------------------------------|
G------------------------------------|------------------------------------|
D-------4------------------4---------|-------4------------------4---------|
A---5-------5---5------5-------5---5-|---5-------5---5------5-------5---5-|
D-0---0--(0)--0------0---0--(0)--0---|-0---0--(0)--0------0---0--(0)--0---|

  D                                   Em                 G                 D etc.
E------------------------------------|------------------------------------|--------
B------------------------------------|------------------------------------|--------
G------------------------------------|------------------------------------|--------
D-------4------------------4---------|-------2------------------5---------|-------4
A---5-------5---5------5-------5---5-|---2-------2---2------5-------5---5-|---5----
D-0---0--(0)--0------0---0--(0)--0---|-2---2--(2)--2------5---5--(5)--5---|-0---0-- 

 

Hele Song

Intro Riff 1x

Verse Riff 1x :

| D                                 | D
When your mind is a mess, So is mine, I cant sleep
| G                                 | G
Cause it hurts when I think, My thoughts aren’t at peace
| Em                               | G
With the plans that we make, Chances we take
| D                                 | D
They’re, not yours and not mine, There’s waves that can break

 

Verse Riff 1x :

| D                                 | D
All the words that we say, And the words that we mean
| G                                 | G
Words can fall short, Can’t see the unseen
| Em                             | G
Cause the world is awake, For somebody’s sake now,
| D                                 | D
Please close your eyes woman, Please get some sleep

 

 

Chorus Riff 1x :

| D                                 | D
And know that if I knew, All of the answers I would
| D                                 | D
Not hold them from you’d, Know all the things that i’d know
| D                                 | D
We told each other, there is no other way
| Em                                 | G
Mmm mm m                                 (ga naar einde)

 

Interlude:

| D                                 | D

| D                                 | D

| D                                 | D

| D                                 | D

 

Verse Riff 1x :

| D                                 | D

Too much silence can be misleading,

| G                                 | G
You’re drifting I can hear it in the way that you’re breathing,

| Em                             | G
We don’t really need to find reason, cause out the same door that it came.

 

Verse Riff 1x :

| D                                 | D
Well it’s leavin, it’s leavin.
Leaving like the day that’s done and part of a season,
| G                                 | G
Resolve is just a concept that’s as dead as the leaves, but at least, we can sleep. It’s all that we need,
| Em                             | G
When we wake we will find. Our minds will be free to go to sleep.

 

Repeat Chorus (ga naar chorus)

 

Outro:

| D                                 | D

| D                                 | D

| D                                 | D

| D                                 | D

 

 

<- terug naar het songoverzicht