Jose Gonzalez – Heartbeats

<- terug naar het songoverzicht

Niveau: xxx (3/5)

Words and music by OLOF BJORN DREIJER, KARIN ELIZABETH DREIJER, KARIS ELIZATEH DREIJER ANDERSSON (Cover ‘the knife)

Jose Gonzalez – Heartbeats

Ja we gaan eerst weer stemmen! De lage E snaar gaat naar een drop D. Het 7e vakje van de 6e snaar moet overeenkomen met de 5e snaar.

De 1e, 2e, 4e en 5e snaar blijven gewoon hetzelfde.

De derde snaar moeten we verlagen met een halve noot. Het vierde vakje op de vierde snaar komt dus overeen met de derde snaar.

Vervolgens zetten we een CAPO op de eerste positie.

Intro riff:


Tuning - D-A-D-F#-B-E
Capo 1st Fret


e |-----------------------------------|-----------------------------------|
B |-----------------------------------|-----------------------------------|
F#|-----------------------------------|-----------------------------------|
D |-----0-----------------0-----------|-----0-----------------0-----------|
A |--4h5-------5-------4h5-------5----|--4h5-------5-------4h5-------5p0--|
D |--0----0------0-----0----0------0--|--0----0------0-----0----0---------|
     

e |-----------------------------------|-----------------------------------|
B |-----------------------------------|-----------------------------------|
F#|-----0---------------0-------------|-----------------------------------|
D |---4-----4---------4-----4---------|-----0-----------------0-----------|
A |---2---2---2-------2---2--------4--|-5--------5---------4h5-------5----|
D |--------------------------------4--|-5-----5-----5------5----5------5--|
                                   |                       |
                                   | de 2e en de 3e vinger neerzetten
                                                           |
e |-----------------------------------|                    | in het hokje
B |-----------------------------------|                    | erachter de
F#|-----------------------------------|                    | 1e vinger
D |-----0-----------------0-----------|
A |--4h5-------5-------4h5-------5----|
D |--5----5------5-----5----5------5--|


Bridge Riff:
Het stuk later in de song... (speel elke maat 2x)

Ook hier spelen we met de hele rechterhand (aanslaghand). 
De p, i, m, a, m, i (p, i).

e |-----------------------------------|-----------------------------------|
B |-----------------------------------|-----------------------------------|
F#|-------0-----------------0---------|-------0-----------------0---------|
D |-----0---0-------------0---0-------|-----0---0-------------0---0-------|
A |---7-------7---7-----7-------7---7-|---5-------5---5-----5-------5---5-|
D |-7-----------7-----7-----------7---|-5-----------5-----5-----------5---|

e |-----------------------------------|-----------------------------------|
B |-----------------------------------|-----------------------------------|
F#|-------0-----------------0---------|-------0-----------------0---------|
D |-----0---0-------------0---0-------|-----0---0-------------0---0-------|
A |---7-------7---7-----7-------7---7-|---5-------5---5-----5-------5---5-|
D |-7-----------7-----7-----------7---|-5-----------5-----5-----------5---|

e |-----------------------------------|  slot : |----0-------|
B |-----------------------------------|         |----0-------| 
F#|-------0-----------------0---------|         |----3-------|
D |-----0---0-------------0---0-------|         |----0-------|
A |---9-------9---9-----9-------9---9-|         |----0-------|
D |-9-----------9-----9-----------9---|         |----0-------|

Jose speelt hierna nog één keer het refrein (= 2x het intro riff)
en sluit dan af met het slot akkoord...


[Verse 1] (intro riff)
One night to be confused
One night to speed up truth
We had a promise made
Four hands and then away

(intro riff)
Both under influence
We had divine sense
To know what to say
Mind is a razor blade

[Chorus] (intro riff)
To call for hands of above
To lean on
Wouldn’t be good enough
For me, no

[Verse 2] (intro riff)
One night of magic rush
The start a simple touch
One night to push and scream
And then relief

(intro riff)
Ten days of perfect hues
The colors red and blue
We had a promise made
We were in love

[Chorus] (intro riff)
To call for hands of above
To lean on
Wouldn’t be good enough
For me, no

(intro riff)
To call for hands of above
To lean on
Wouldn’t be good enough

[Bridge] (bridge riff)
And you, you knew the hand of the devil
And you, kept us awake with wolf teeth

[Chorus] (intro riff)
To call for hands of above
To lean on
Wouldn’t be good enough
For me, no

(intro riff)
To call for hands of above
To lean on
Wouldn’t be good enough

<- terug naar het songoverzicht