Jose Gonzalez – Teardrop

<- terug naar het songoverzicht

Niveau: xx (2/5)

Words and music by Fraser Elizabeth Davidson, Del Naja Robert, Vowles Andrew Lee Isaac, Marshall Grantley Evan

Teardrop – Jose Gonzalez.

Tuning: DADABE

De 6e snaar is een drop D (7e hokje zesde snaar = 5e snaar open).

De 3e snaar draaien we omhoog naar een A (niet teveel !!!). Het 2e hokje van de 3e snaar is dan even hoog als de 2e snaar open.

Voor het aanslaan gebruiken we alle vingers van onze rechterhand. Behalve de pink natuurlijk. Die doet nooit mee en kan eraf met oudjaarsavond. De rest van onze vingers hebben we wel nodig!

De onderste snaar spelen we met de duim (p). De overige snaren (3 stuks) spelen we met onze wijsvinger (i), middelvinger (m) en ringvinger (a). Kijk even in het intro hieronder.

Elke maat kan je verdelen in 8 stukjes (achtsten). De noten staan dus in een 4/4 maat met steeds noten van een halve tel. Je weet inmiddels hoe je dan kan tellen. Tel dus zo: 1, ne, 2, je , 3, je, 4, re… etc. In je hoofd meetellen of hardop!

Probeer een vloeiende beweging te maken die in hetzelfde tempo doorloopt. In het begin heel langzaam!

=========================================================================

Intro:

|---------0-------|                  a
|-3---------------|          m
|-----0-------0---| (x8)         i       i
|---0---0---0---0-|            p   p   p   p
|-----------------|
|-----------------|

=========================================================================

Verse 1:

|-----------------|---------0-------|-----------------|---------0-------|
|-3-------3-------|-3---------------|-3-------3-------|-3---------------|
|-----0-------0---|-----0-------0---|-----0-------0---|-----0-------0---|
|---0---0---0---0-|---0---0---0---0-|---0---0---0---0-|---0---0---0---0-|
|-----------------|-----------------|-----------------|-----------------|
|-----------------|-----------------|-----------------|-----------------|

|---------0-------|---------0-------|---------0-------|---------0-------|
|-3---------------|-3---------------|-3---------------|-3---------------|
|-----0-------0---|-----0-------0---|-----0-------0---|-----0-------0---|
|---5---5---5---5-|---5---5---5---5-|---0---0---0---0-|---0---0---0---0-|
|-----------------|-----------------|-----------------|-----------------|
|-----------------|-----------------|-----------------|-----------------|

|---------0-------|---------0-------|---------0-------|---------0-------|
|-3---------------|-3---------------|-3---------------|-3---------------|
|-----0-------0---|-----0-------0---|-----0-------0---|-----0-------0---|
|---0---0---0---0-|---0---0---0---0-|---0---0---0---0-|---0---0---0---0-|
|-----------------|-----------------|-----------------|-----------------|
|-----------------|-----------------|-----------------|-----------------|

|---------0-------|---------0-------|---------0-------|---------0-------|
|-3---------------|-3---------------|-3---------------|-3---------------|
|-----0-------0---|-----0-------0---|-----0-------0---|-----0-------0---|
|---5---5---5---5-|---5---5---5---5-|---0---0---0---0-|---0---0---0---0-|
|-----------------|-----------------|-----------------|-----------------|
|-----------------|-----------------|-----------------|-----------------|

|---------0-------|---------0-------|---------0-------|---------0-------|
|-3---------------|-3---------------|-3---------------|-3---------------|
|-----0-------0---|-----0-------0---|-----0-------0---|-----0-------0---|
|---3---3---3---3-|---3---3---3---3-|---5---5---5---5-|---5---5---5---5-|
|-----------------|-----------------|-----------------|-----------------|
|-----------------|-----------------|-----------------|-----------------|

|---------0-------|---------0-------|-----------------|-----------------|
|-3---------------|-3---------------|-3-------3-------|-3-------3-------|
|-----0-------0---|-----0-------0---|-----0-------0---|-----0-------0---|
|---0---0---0---0-|---0---0---0---0-|---0---0---0---0-|---0---0---0---0-|
|-----------------|-----------------|-----------------|-----------------|
|-----------------|-----------------|-----------------|-----------------|

|-----------------|-----------------|-----------------|-----------------|
|-3-------3-------|-3-------3-------|-3-------3-------|-3-------3-------|
|----0-0-----0-0--|----0-0-----0-0--|----0-0-----0-0--|----0-0-----0-0--|
|-----------------|-----------------|-----------------|-----------------|
|-----------------|-----------------|-----------------|-----------------|
|-0---0---0---0---|-0---0---0---0---|-0---0---0---0---|-0---0---0---0---|


=========================================================================



Verse 2:

|-----------------|-----------------|-----------------|-----------------|
|-3-------3-------|-3-------3-------|-3-------3-------|-3-------3-------|
|----0-0-----0-0--|----0-0-----0-0--|----0-0-----0-0--|----0-0-----0-0--|
|-----------------|-----------------|-----------------|-----------------|
|-----------------|-----------------|-----------------|-----------------|
|-0---0---0---0---|-0---0---0---0---|-0---0---0---0---|-0---0---0---0---|

|-----------------|-----------------|-----------------|-----------------|
|-3-------3-------|-3-------3-------|-3-------3-------|-3-------3-------|
|----0-0-----0-0--|----0-0-----0-0--|----0-0-----0-0--|----0-0-----0-0--|
|-----------------|-----------------|-----------------|-----------------|
|-----------------|-----------------|-----------------|-----------------|
|-5---5---5---5---|-5---5---5---5---|-0---0---0---0---|-0---0---0---0---|

|-----------------|-----------------|-----------------|-----------------|
|-3-------3-------|-3-------3-------|-3-------3-------|-3-------3-------|
|----0-0-----0-0--|----0-0-----0-0--|----0-0-----0-0--|----0-0-----0-0--|
|-----------------|-----------------|-----------------|-----------------|
|-----------------|-----------------|-----------------|-----------------|
|-0---0---0---0---|-0---0---0---0---|-0---0---0---0---|-0---0---0---0---|

|-----------------|-----------------|-----------------|-----------------|
|-3-------3-------|-3-------3-------|-3-------3-------|-3-------3-------|
|----0-0-----0-0--|----0-0-----0-0--|----0-0-----0-0--|----0-0-----0-0--|
|-----------------|-----------------|-----------------|-----------------|
|-----------------|-----------------|-----------------|-----------------|
|-5---5---5---5---|-5---5---5---5---|-0---0---0---0---|-0---0---0---0---|

|-----------------|-----------------|-----------------|-----------------|
|-3-------3-------|-3-------3-------|-3-------3-------|-3-------3-------|
|----0-0-----0-0--|----0-0-----0-0--|----0-0-----0-0--|----0-0-----0-0--|
|-----------------|-----------------|-----------------|-----------------|
|-----------------|-----------------|-----------------|-----------------|
|-3---3---3---3---|-3---3---3---3---|-5---5---5---5---|-5---5---5---5---|

|-----------------|-----------------|
|-3-------3-------|-3-------3-------|
|----0-0-----0-0--|----0-0-----0-0--|
|-----------------|-----------------|
|-----------------|-----------------|
|-0---0---0---0---|-0---0---0---0---|




=========================================================================

Interlude 1:

|-5-------5-------|-5-------5-------|-8-------8-------|-8-------8-------|
|-----3-------3---|-----3-------3---|-----5-------5---|-----5-------5---|
|---0---0---0---0-|---0---0---0---0-|---0---0---0---0-|---0---0---0---0-|
|-0---------------|-0---------------|-0---------------|-0---------------|
|-----------------|-----------------|-----------------|-----------------|
|-----------------|-----------------|-----------------|-----------------|

|-8-------8-------|-8-------8-------|-8-------8-------|-8-------8-------|
|-----8-------8---|-----8-------8---|-----8-------8---|-----8-------8---|
|---0---0---0---0-|---0---0---0---0-|---0---0---0---0-|---0---0---0---0-|
|-0---------------|-0---------------|-0---------------|-0---------------|
|-----------------|-----------------|-----------------|-----------------|
|-----------------|-----------------|-----------------|-----------------|




Verse 3:

|-----------------|-----------------|-----------------|-----------------|
|-3-------3-------|-3-------3-------|-3-------3-------|-3-------3-------|
|----0-0-----0-0--|----0-0-----0-0--|----0-0-----0-0--|----0-0-----0-0--|
|-----------------|-----------------|-----------------|-----------------|
|-----------------|-----------------|-----------------|-----------------|
|-0---0---0---0---|-0---0---0---0---|-0---0---0---0---|-0---0---0---0---|

|-----------------|-----------------|-----------------|-----------------|
|-3-------3-------|-3-------3-------|-3-------3-------|-3-------3-------|
|----0-0-----0-0--|----0-0-----0-0--|----0-0-----0-0--|----0-0-----0-0--|
|-----------------|-----------------|-----------------|-----------------|
|-----------------|-----------------|-----------------|-----------------|
|-5---5---5---5---|-5---5---5---5---|-0---0---0---0---|-0---0---0---0---|

|-----------------|-----------------|-----------------|-----------------|
|-3-------3-------|-3-------3-------|-3-------3-------|-3-------3-------|
|----0-0-----0-0--|----0-0-----0-0--|----0-0-----0-0--|----0-0-----0-0--|
|-----------------|-----------------|-----------------|-----------------|
|-----------------|-----------------|-----------------|-----------------|
|-0---0---0---0---|-0---0---0---0---|-0---0---0---0---|-0---0---0---0---|

|-----------------|-----------------|-----------------|-----------------|
|-3-------3-------|-3-------3-------|-3-------3-------|-3-------3-------|
|----0-0-----0-0--|----0-0-----0-0--|----0-0-----0-0--|----0-0-----0-0--|
|-----------------|-----------------|-----------------|-----------------|
|-----------------|-----------------|-----------------|-----------------|
|-5---5---5---5---|-5---5---5---5---|-0---0---0---0---|-0---0---0---0---|

|-----------------|-----------------|-----------------|-----------------|
|-3-------3-------|-3-------3-------|-3-------3-------|-3-------3-------|
|----0-0-----0-0--|----0-0-----0-0--|----0-0-----0-0--|----0-0-----0-0--|
|-----------------|-----------------|-----------------|-----------------|
|-----------------|-----------------|-----------------|-----------------|
|-3---3---3---3---|-3---3---3---3---|-5---5---5---5---|-5---5---5---5---|

|-----------------|-----------------|-----------------|-----------------|
|-3-------3-------|-3-------3-------|-3-------3-------|-3-------3-------|
|----0-0-----0-0--|----0-0-----0-0--|----0-0-----0-0--|----0-0-----0-0--|
|-----------------|-----------------|-----------------|-----------------|
|-----------------|-----------------|-----------------|-----------------|
|-0---0---0---0---|-0---0---0---0---|-3---3---3---3---|-3---3---3---3---|


|-----------------|-----------------|-----------------|-----------------|
|-3-------3-------|-3-------3-------|-3-------3-------|-3-------3-------|
|----0-0-----0-0--|----0-0-----0-0--|----0-0-----0-0--|----0-0-----0-0--|
|-----------------|-----------------|-----------------|-----------------|
|-----------------|-----------------|-----------------|-----------------|
|-5---5---5---5---|-5---5---5---5---|-3---3---3---3---|-3---3---3---3---|

=========================================================================

Interlude 2:

|-5-------5-------|-5-------5-------|-8-------8-------|-8-------8-------|
|-----3-------3---|-----3-------3---|-----5-------5---|-----5-------5---|
|---0---0---0---0-|---0---0---0---0-|---0---0---0---0-|---0---0---0---0-|
|-----------------|-----------------|-----------------|-----------------|
|-----------------|-----------------|-----------------|-----------------|
|-0---------------|-0---------------|-0---------------|-0---------------|

|-8-------8-------|-8-------8-------|-10------10------|-10-----10-------|
|-----10------10--|-----10------10--|-----10------10--|-----10------10--|
|---0---0---0---0-|---0---0---0---0-|---0---0---0---0-|---0---0---0---0-|
|-----------------|-----------------|-----------------|-----------------|
|-----------------|-----------------|-----------------|-----------------|
|-0---------------|-0---------------|-0---------------|-0---------------|


Outro:

|-----------------|-----------------|-----------------|-----------------|
|-10------10------|-10-----10-------|-10------10------|-10-----10-------|
|-----0-------0---|-----0-------0---|-----0-------0---|-----0-------0---|
|---0---0---0---0-|---0---0---0---0-|---0---0---0---0-|---0---0---0---0-|
|-----------------|-----------------|-----------------|-----------------|
|-8---------------|-8---------------|-10--------------|-10--------------|

|-----------------|-----------------|---------10------|-10-------10-----|
|-10------10------|-10-----10-------|-10--------------|-----------------|
|-----0-------0---|-----0-------0---|-----0-------0---|-----0-------0---|
|---0---0---0---0-|---0---0---0---0-|---0---0---0---0-|---0---0---0---0-|
|-----------------|-----------------|-----------------|-----------------|
|-8---------------|-8---------------|-10--------------|-10--------------|

|---0---------|
|---3---------|
|---0---------|
|---0---------|
|---0---------|
|-------------|



 

<- terug naar het songoverzicht