Kasabian – Fire

<- terug naar het songoverzicht

Niveau: xxx (4/5)

Words and music by SERGIO PIZZORNO

Kasabian – Fire

Intro:

 (in achtsten en lichte shuffle)
We wisselen van de C en A# door de 3e en 4e vinger op te tillen. 
De korte barré van het power chord blijft dan staan. 

  C              A#
E------------------------------------------------
B------------------------------------------------
G------------------------------------------------
D---10-10-10-10-10-8--8--8-----------------------
A---10-10-10-10-10-8--8--8-----------------------
E---8--8--8--8--8--8--8--8------------------| (4x)

    1 e  2 e  3 e  4 e

Verse: 
  C              A#
E--------------------------|---------------------
B--------------------------|----------------------
G--------------------------|----------------------
D---10-10-10-10-10-8--8--8-|----------------------
A---10-10-10-10-10-8--8--8-|----------------------
E---8--8--8--8--8--8--8--8-|-----------------| (2x)

    1 e  2 e  3 e  4 e

  D#          A#
E--------------------------|---------------------
B--------------------------|----------------------
G---8--8--8--8-------------|----------------------
D---8--8--8--8--8--8--8--8-|----------------------
A---6--6--6--6--8--8--8--8-|----------------------
E---------------6--6--6--6-|----------------------

    1 e  2 e  3 e  4 e

  C              A#
E--------------------------|---------------------
B--------------------------|----------------------
G--------------------------|----------------------
D---10-10-10-10-10-8--8--8-|----------------------
A---10-10-10-10-10-8--8--8-|----------------------
E---8--8--8--8--8--8--8--8-|----------------------

    1 e  2 e  3 e  4 e

Chorus: 
    C         F           D#      D#
E---------------------------|----------------------
B---------------------------|----------------------
G---------------10-10-10-10-|-8-8-8-8--8-8-8-8-----
D---10-10-10-10-10-10-10-10-|-8-8-8-8--8-8-8-8-----
A---10-10-10-10-8--8--8--8--|-6-6-6-6--6-6-6-6-----
E---8--8--8--8--------------|----------------------

    1 e  2 e  3 e  4 e


    D#      D#            F          C
E---------------------------|-------------------------
B---------------------------|-------------------------
G---8-8-8-8--8-8-8-8--------|-10-10-10-10-------------
D---8-8-8-8--8-8-8-8--------|-10-10-10-10-10-10-10-10-
A---6-6-6-6--6-6-6-6--------|-8--8--8--8--10-10-10-10-
E---------------------------|-------------8--8--8--8--

    1 e  2 e  3 e  4 e

Speel de akkoorden als powers…

(inv sample)

[INTRO]

| C C C A# | 4x

[VERSE 1]

| C C C A# | C C C A# | D# D# A# A# | C C C A# |
Take me into the night, and I’m an easy lover
| C | C | D# A# | C |
Take me into the fight, and I’m an easy brother
| C | C | D# A# | C |
And I’m on fire,
| C | C | D# A# | C |
I’m on fire.

| C C C A# | 2x

| C | C | D# A# | C |
Burn my sweet leather jean, I’m a roadrunner,
| C | C | D# A# | C |
Spill my guts on the wheel, I wanna taste a heart,
| C | C | D# A# | C |
And I’m on fire,
| C | C | D# A# | C |
I’m on fire.

[CHORUS]

| C | F | D# | D# |  And I’m on fire…
| D# | F | C | A# |
(I’m going, you tell me, I feel it, I say it
I’m heading back into the tunnel for my soul to burn)

| C | F | D# | D# | And I’m on fire…
| D# | F | C | A# |
(I’m coming, you coming, no hiding, my feeling
I wanna take it to the highest over me, yeah…)

| C | F | D# | D# | | D# | F | C | A# |
Whoo Whoo

| C | F | D# | D# | | D# | F | C | A# |
Whoo Whoo

[VERSE 2]

| C | C | D# A# | C |
Wire me up to machines, I’ll be your prisoner
| C | C | D# A# | C |
Find it hard to believe, You are my murderer
| D# A# | C | C |
I’m on fire behind you
| D# A# | C | G |
Heads a fallen sky

repeat [Chorus] till end…