Les 7E Meer blues en boogie woogie

<- Een volgende les…

Meer boogie woogie…

Er zijn natuurlijk nog veel meer variaties te bedenken in de Blues van E. Bijvoorbeeld het wisselen van de 3e vinger. Gebruik weer de Capo op 5.

Notatie tellende vanaf CAPO 5.

e|-(E)---------------------|-(A)---------------------|-(B)----------------------
B|-------------------------|-------------------------|--------------------------
G|-------------------------|-------------------------|--------------------------
D|-------------------------|--2-2---4-4---2-2---4-4--|--4-4---6-6---4-4---6-6---
A|--2-2---4-4---2-2---4-4--|--0-0---0-0---0-0---0-0--|--2-2---2-2---2-2---2-2---
E|--0-0---0-0---0-0---0-0--|-------------------------|--------------------------

De wijsvinger (1) blijft staan,                       Bij B is het lastiger.
Je zet je ringvinger (3) om en om                     We hebben hier al de greep
wel en niet neer. Doe dat bij zowel E als A.          staan waarvoor we de 1e en 
                                                      3e vinger nodig hebben. We
                                                      kunnen de pink (4) gebruiken 
                                                      om de tweede greep te spelen
                                                      waarbij we vinger 1 en 3 dus 
                                                      laten staan.

Dit klinkt zo:

De eerste opname langzaam, de maten – |  E  |  E  |  A  |  A  | – |  B  |  B  |  A  |  A  | – |  E  |  E  |  E  |  E  | –

De hele blues, de maten – |  E  |  E  |  E  |  E  | – |  A  |  A  |  E  |  E  | – |  B  |  A  |  E  |  B7  | – 2x

 

We kunnen de onze wissel ook opbouwen vanaf de 1e vinger naar de 3e vinger en vervolgens ook de 4e vinger gebruiken. We krijgen dan het volgende schema:

Notatie tellende vanaf CAPO 5.

e|-(E)---------------------|-(A)---------------------|-(B)----------------------
B|-------------------------|-------------------------|--------------------------
G|-------------------------|-------------------------|--------------------------
D|-------------------------|--2-2---4-4---5-5---4-4--|--4-4---6-6---4-4---6-6---
A|--2-2---4-4---5-5---4-4--|--0-0---0-0---0-0---0-0--|--2-2---2-2---2-2---2-2---
E|--0-0---0-0---0-0---0-0--|-------------------------|--------------------------

De wijsvinger (1) blijft staan,                       Bij B blijft het hetzelfde.
Je zet je ringvinger (3) erbij                        We hebben helaas niet nog 
en vervolgens ook de pink (4).                        meer vingers beschikbaar
                                                      dan de vingers 1, 3 en 4
                                                      die we al gebruiken. 

De maten – |  E  |  E  |  E  |  E  | – |  A  |  A  |  E  |  E  | – |  B  |  A  |  E  |  B7  | – | …

De Turn Around..

Bij het bluesschema – |  E  |  E  |  E  |  E  | – |  A  |  A  |  E  |  E  | – |  B7  |  A  |  E  |  B7  | – horen we dat het schema als het ware verder wil met weer opnieuw herhalen. De laatste maten in de blues noemen we dan ook wel de ‘turn around’. Zouden we eindigen met E (één aanslag en laten uitzingen…) dan krijgen we het gevoel dat de blues song op zijn einde is. Willen we dan niet, dan spelen we de ‘turn around’. Zo kunnen we oneindig lang doorgaan met de blues… steeds weer het schema herhalen met een kleine variatie of iemand anders uit de band de gelegenheid geven zijn instrument op de voorgrond te laten horen.. of afwisselen tussen instrument en vocaal… etc. etc.

Meestal volgt er een riffje (picking stukje) op de plek van de laatste twee akkoorden. Ook bij de ‘turn around’ kunnen we veel meer variaties bedenken. Ik wil er alvast één laten zien. Mijn eigen favoriet die al heel vaak in jam sessies met bandjes voorbij is gekomen. We gaan hier in de blues lessen mee verder.

Notatie tellende vanaf CAPO 5. 
Vervanging voor de laatste vier maten van het blues-12-bar-schema:

e|-(B7)--------------------|-(A7)-------------------|
B|----------------0--------|-----------2------------|
G|-----------2------2---2--|------0------0---0------|
D|---------1---1------1----|----2---2------2--------|
A|--0-1-2------------------|--0---------------------|
E|-------------------------|------------------------|

e|-(E7)0-------------------|-(B7)-----4--------3--------2----------------|
B|-----0-------------------|------------3--------2--------2--------------|
G|-----1-------------------|--------4--------3--------2------1-----------|
D|-----0-------------------|---------------------------------------------|
A|-----2-------------------|-------------------------------------0-1-2---|
E|-----0-------------------|---------------------------------------------|
                                Merk op dat je dezelfde greep als het D7 
                                akkoord neer kan zetten (in 1 keer) zodat 
                                je het riffje op snelheid kan spelen. Je 
                                hoeft de greep dan enkel naar beneden 
                                te schuiven zonder dat je je vingers  
                                opnieuw neer hoeft te zetten.

Weer een song van Brain Setzer waar herhaaldelijk van de turn around gebruik wordt gemaakt is bijvoorbeeld:

Waar hebben we dit allemaal nog meer voor nodig? Probeer dan eens Blue suede shoes of The jailhouse rock ook van Elvis Presley…

 

<- Een volgende les…