Maaike Ouboter – Dat ik je mis

<- terug naar het songoverzicht

Niveau: x (1/5)

Words and music by MAAIKE OUBOTER

 

Capo 2nd.

  Verse 1 en 2, 1e, 2e en 4e regel
 Em            G/F#          G             G              
E-------------|-------------|-------------|-------------|
B-------------|-------------|-------------|-------------|
G------0--0---|------0--0---|------0--0---|------0--0---|
D-----2--2----|-----0--0----|-----0--0----|-----0--0----|
A-------------|-------------|-------------|-------------|
E---0--0------|---2--2------|---3--3------|---3--3------|

In het couplet gaat de derde zin met Am, G en C.  Kijk maar:

  Verse 1 en 2, derde regel
 Am             G             C            C
E--------------|-------------|------------|------------|
B--------------|-------------|------------|------------|
G------2--2----|------0--0---|------0--0--|------0--0--|
D-----2--2-----|-----0--0----|-----2--2---|-----2--2---|
A----0--0------|----2--2-----|----3--3----|----3--3----|
E--------------|-------------|------------|------------|
[Verse 1]
Em                      G/F#
Je kust me, Je sust me, omhelst me, gerust me
G
Je vangt me,verlangt me, oneindig ontbangt me
Em                      G/F#
Je roept me, Je hoort me, je redt en verstoort me
G
Gelooft me, berooft me, verstikt en verdooft me
Am                   G 
Je ademt en leeft me, siddert en beeft me
C
Vertrouwt me, beschouwt me als mens en weerhoudt me
Em                G/F#
Van bozige dromen die op komen dagen
G
De eenzame vragen van eindig geluk
[Verse 2]
Em                        G/F#
Met je krullen als nacht, hoe je praat, hoe je lacht
G
Hoe je stem zo dichtbij als een engel verzacht
Em                          G/F#
In mijn dromen doorstromen, oneindige leegtes
G
Je remt me, je temt me, je roert en beweegt me
Am                    G
Ik mis je, ik mis je, ik grijp je, ik gris je
C
Ik wil je, bespeel je, ik roer en beveel je
Em                    G/F#
Om bij me te blijven, in donkere nachten
G
Om niet meer te smachten naar jou
  Chorus 1:
 Am                     C                      Em                 G/F#             2x
E----------------------|----------------------|------------------|-------------------|
B------1-------1-------|------1-------1-------|-----0------0-----|-----0-------0-----|
G-----2-2-----2-2------|-----0-0-----0-0------|----0-0----0-0----|----0-0-----0-0----|
D----2---2---2---2-----|----2---2---2---2-----|---2---2--2---2---|---0---0---0---0---|
A---0-------0----------|---3-------3----------|------------------|-------------------|
E----------------------|----------------------|--0------0--------|--2-------2--------|
  Bridge 1:
 Am             G               C                C             2x
E--------------|---------------|----------------|----------------|
B------1----1--|------0----0---|-----1-----1----|-----1-----1----|
G--------------|---------------|----------------|----------------|
D----2----2----|----0----0-----|---2-----2------|---2-----2------|
A---0----0-----|---2----2------|--3-----3-------|--3-----3-------|
E--------------|---------------|----------------|----------------| 
[Chorus 1]
Am         C
Laat me los
Em         G/F#    
Ik moet nu alleen
Am                               C
En houdt me vast als het nodig is, in gedachten
Em                            G/F#
Ik zoek je in alles om me heen


[Bridge 1]
Am7                   Em7     C      C
Maar al denk ik soms dat het zo beter is
Am7                   Em7     C      C
Kan ik het niet helpen dat ik je soms mis
  Verse 3, 1e, 2e en 4e regel
 Em            G/F#          G             G              
E-------------|-------------|-------------|-------------|
B-------------|-------------|-------------|-------------|
G------0--0---|------0--0---|------0--0---|------0--0---|
D-----2--2----|-----0--0----|-----0--0----|-----0--0----|
A-------------|-------------|-------------|-------------|
E---0--0------|---2--2------|---3--3------|---3--3------|
  Verse 3, derde regel
 Am             G             C            C
E--------------|-------------|------------|------------|
B--------------|-------------|------------|------------|
G------2--2----|------0--0---|------0--0--|------0--0--|
D-----2--2-----|-----0--0----|-----2--2---|-----2--2---|
A----0--0------|----2--2-----|----3--3----|----3--3----|
E--------------|-------------|------------|------------|
[Verse 3]
Em                    G/F#
Ik smoor je, bevroor je, verlos, en verloor je
G
Weg naar een andere plek maar ik hoor je
Em                    G/F#
Omarm je, verwarm je, ik zie je en voel je
G
Ik aai je, ik streel je, ik knuffel en kroel je
Am                        G
Je rijpt me, begrijpt me, verwart en misleidt me
C
Het schrikt me soms af hoeveel ik op je lijk nu
Em                          G/F#
Mijn glimlach, mijn tranen, mijn liefde voor leven
G
Het spijt me van alles, kom help en bevrijd me
  Chorus 2:
 Am                     C                      Em                 G/F#             2x
E----------------------|----------------------|------------------|-------------------|
B------1-------1-------|------1-------1-------|-----0------0-----|-----0-------0-----|
G-----2-2-----2-2------|-----0-0-----0-0------|----0-0----0-0----|----0-0-----0-0----|
D----2---2---2---2-----|----2---2---2---2-----|---2---2--2---2---|---0---0---0---0---|
A---0-------0----------|---3-------3----------|------------------|-------------------|
E----------------------|----------------------|--0------0--------|--2-------2--------|
  Bridge 2:
 Am             G               C                C             2x
E--------------|---------------|----------------|----------------|
B------1----1--|------0----0---|-----1-----1----|-----1-----1----|
G--------------|---------------|----------------|----------------|
D----2----2----|----0----0-----|---2-----2------|---2-----2------|
A---0----0-----|---2----2------|--3-----3-------|--3-----3-------|
E--------------|---------------|----------------|----------------|
[Chorus 2}
Am         C
Laat me los
Em         G/F#    
Ik moet nu alleen
Am                               C
En houdt me vast als het nodig is, in gedachten
Em                            G/F#
Ik zoek je in alles om me heen


[Bridge 2]
Am7                  Em7     C       C
Maar al denk ik soms dat het zo beter is
Am7                  Em7     C       C
Kan ik het niet helpen dat ik je soms mis
  Verse 4
 Em            G/F#          G             G              
E-------------|-------------|-------------|-------------|
B-------------|-------------|-------------|-------------|
G------0--0---|------0--0---|------0--0---|------0--0---|
D-----2--2----|-----0--0----|-----0--0----|-----0--0----|
A-------------|-------------|-------------|-------------|
E---0--0------|---2--2------|---3--3------|---3--3------|
[Verse 4]
Em                          G/F#
Ik kus je, ik sus je, ik doof en ik blus je
G
Je blijft heel dichtbij me, maar in mijn hoofd rust je

Em,G/F#,G (Fade out)

<- terug naar het songoverzicht

error: Content is protected !!