Anouk – Nobody’s Wife

<- terug naar het songoverzicht

Niveau: xxx (3/5)

Words and music by ANOUK TEEUWE, BART VAN VEEN, SATINDRA KALPOE.

Anouk – Nobody’s Wife

Riff: 
Sound/Effect = Clean Guitar

  Em	      Cadd9       Am          G         G/F#

E----------0-|------------|------------|-------------------|
B-------0----|-------3----|-------0--1-|-------------------|
G----0-------|----0-----0-|------------|-------0--------0--|
D------------|------------|----2-------|----0--------0-----|
A------------|-3----------|-0----------|-------------------|
E--0---------|------------|------------|-3--------2--------|

Tuning: Eb (all strings one step down) Enkel belangrijk als je mee gaat spelen met youtube…

De Cadd9 ziet er zo uit: x32030. Bij het C akkoord zet je je pink op de 2e snaar, het 3e hokje. De wijsvinger hoef je niet te laten staan.

Intro:

2x riff

Verse (couplet) :

Je hoort dat de riff ook gebruikt wordt voor het couplet. Echter, wanneer je wil zingen bij het nummer is het doorspelen van de riff bijna ondoenlijk. Mijn oplossing: begin na het spelen van het intro, dus bij de start van de tekst met strummen (slagjes). Kijk in de lessen slaggitaar voor meer uitleg wanneer je hier niet uitkomt. Gebruik bijvoorbeeld het onderstaande slagpatroon:

| ^     ^v     v^v |

Begin met het aanslaan van de (laagste) bas van het akkoord. De overige slagjes vinden plaats in het ‘veilige’ gebied van de gitaar (de 1e,2e en 3e snaar). Zodoende sla je niet per ongeluk een verkeerde bassnaar aan die er maar lelijk doorheen klinkt omdat deze niet past bij het akkoord dat je op dat moment aan het spelen bent. Als je moeite hebt met het slagpatroon, vergelijk het patroon dan eens met de standaard aanslag in achtsten:

| ^v^v ^v^v |       tegenover    | ^ (v) ^v  (^) v^v |      oftewel :     | ^     ^v     v^v |

Je ziet dat er enkele slagjes worden overgeslagen. Letterlijk worden ze ‘overgeslagen’: de handbeweging maakt echter doorgaans de beweging alsof we alle noten aan het spelen zijn. Bij de eerste aanslag picken we dus de (laagste) bas met ofwel de duim of het plectrum (afhankelijk van spelende met vingers of het plectrum). Daarna doen we de rest van de slagjes op de 1e, 2e en 3e snaar. Zo klinkt dat:

Vervolgens gaan we over op power chords (kijk voor uitleg eerste rocklessen). De sound van de gitaar veranderen we naar een lichte overdrive/distortion. Zo vervolgt het chorus (refrein) meer rocky met powers (de -5 akkoorden). Dit slagritme is minder eenvoudig opgebouwd. Het bestaat uit kwartnoten, achtsten en zelfs zestienden. Toch, na het beluisteren van de sample moet het slagritme eenvoudig over te nemen zijn. We zullen beide slagritmes nog veel vaker in andere popliedjes terug zien komen. De slagritmes worden allebei namelijk veelvuldig gebruikt in de Pop.

Slagritme:  | ^      ^     ^ v ^     ^ v |  oftewel:

Sound/Effect = Distortion Guitar

   E5       C5               A5      G5     F#5
E[-------------------------|--------------------]
B[-------------------------|--------------------]
G[-------------------------|--------------------]
D[-2---2---10-10-10--10-10-|-7---7---5-5-5--4-4-]
A[-2---2---10-10-10--10-10-|-7---7---5-5-5--4-4-|
E[-0---0---8--8--8---8--8--|-5---5---3-3-3--2-2-]
   A5      D5           G5      C5       
E[--------------------|--------------------]
B[--------------------|--------------------]
G[---------7-7-7--7-7-|---------5-5-5--5-5-]
D[-7---7---7-7-7--7-7-|-5---5---5-5-5--5-5-]
A[-7---7---5-5-5--5-5-|-5---5---3-3-3--3-3-|
E[-5---5--------------|-3---3--------------]

Nu de hele song:

Riff: 
Sound/Effect = Clean Guitar

Em		  C           Am             G         G/F#

E----------0-|------------|------------|-------------------|
B-------0----|-------3----|-------0--1-|-------------------|
G----0-------|----0-----0-|------------|-------0--------0--|
D------------|------------|----2-------|----0--------0-----|
A------------|-3----------|-0----------|-------------------|
E--0---------|------------|------------|-3--------2--------|

Sound/effect: clean guitar

Intro:  2x riff

 

Verse:

Slagritme:  | ^      ^v     v^v |
1e = bas

|          Em        |        Cadd9     |          Am        |     G           G/F#     |
I’m sorry for the times that I made you scream. For the times that I killed your
|          Em        |        Cadd9     |          Am        |     G           G/F#     |
… dreams. For the times that I made your whole world rumble
|          Em        |        Cadd9     |          Am        |     G           G/F#     |
For the times that I made you cry, For the times that I told you
|          Em        |        Cadd9     |          F            |     rust (drums come in)   It’s too…  |
… lies. For the times that I watched and let you stumble

F = één aanslag en laten ‘uitzingen’ = rust

 

Sound/effect: overdrive/distortion guitar

Chorus:

Slagritme:  | ^      ^     ^ v ^     ^ v |
It’s too …
|           E5           |            C5           |             A5             |        G5  F#5       |
… bad,               but that’s              me                                        What goes a- …
|           E5           |            C5           |             A5             |        G5  F#5       |
… round comes around,             you’ll see                           That I can…
|           A5           |            D5           |             G5             |            C5             |
… carry                                      the burden of pain, cause it ain’t the
|           A5           |            D5           |             G5             |            C5             |
… first time                              that a man goes insane, when I spread
|           A5           |            D5           |             G5             |            C5             |
… my wings                             to embrace him for life, sucking out his
|           A5           |            D5           |             G5             |            C5             |
… love      I ‘ll never be         nobody’s                         wife …

… meteen naar de Riff (clean) … (2x)

Riff: 
Sound/Effect = Clean Guitar

  Em	      Cadd9       Am          G         G/F#

E----------0-|------------|------------|-------------------|
B-------0----|-------3----|-------0--1-|-------------------|
G----0-------|----0-----0-|------------|-------0--------0--|
D------------|------------|----2-------|----0--------0-----|
A------------|-3----------|-0----------|-------------------|
E--0---------|------------|------------|-3--------2--------|

 

Verse 2:
I’m sorry for the times that I didn’t come home
Left you lyin’ in that bed alone
Flyin’ high in the sky when you needed my shoulder
You’re like a stone hangin’ round my neck, see
Cut it loose before it breaks my back, see
I’ve gotta say what I feel before I grow older
I’m sorry but I ain’t gonna change my ways
You know I’ve tried but I’m still the same
I’ve got to do it my own way…     (way = start power E5)

 

Chorus

 

Solo / Interlude

 

Chorus

… I’ll never be, never be, never gonna be, never gonna be, never gonna be, nobody’s wife …

<- terug naar het songoverzicht