Racoon – Oceaan

<- terug naar het songoverzicht

Niveau: xxx (3/5)

Words and music by WOUTER VAN BELLE, STEPHANUS DE KROON, DENNIS HUIGE, BART VAN DER WEIDE, PAUL BUKKENS

Racoon – Oceaan

CAPO 2nd

[Intro, Verse, Outro]

   G                          Em
e|---------------------------|---------------------------|
B|---------------------------|---------------------------|
G|-------------0h2--0--------|---------------------------|
D|---------0------------2p0--|---------0---0h2--0--------|
A|----0h2--------------------|----0h2---------------2p0--|
E|-3-------------------------|-3-------------------------| 2x

[Chorus]

   C             Am            Em            D  
e|-------------|-------------|-------------|-----2-------|
B|-----1-------|-----1-------|-----0-------|-------3---3-|
G|-------0---0-|-------0---0-|-------0---0-|---2-----2---|
D|---2-----2---|---2-----2---|---0-----0---|-0-----------|
A|-3-----------|-0-----------|-------------|-------------|
E|-------------|-------------|-0-----------|-------------| 4x

[Verse 1]
(met het riffje van hierboven)

| G | Em | G | Em |
Er is verrekte veel te zeggen
| G | Em | G | Em |
en te liegen nog veel meer
| G | Em | G |
Heel veel bagger bloot te leggen
| G | Em |
al doet het graven nog zo’n zeer
| G | Em |
Ik ben een eikel maar ik leer

[Chorus]

| C | Am | Em | D |
Een oceaan om in te vluchten
| C | Am | Em | D |
nooit jaloers te hoeven zijn
| C | Am | Em | D |
Liefde om je hart te luchten
| C | Am | Em | D |
Een oceaan, hoe lekker zou het zijn

[Verse]

Was er iets waar ik om wenste
voordat de put droog kwam te staan
Dan was het lang zullen we leven
familie waar ik veel van hou
en voor wie ik sterven zou

[Bridge]

   G                   Em
E|-----------------------------------|
B|-----------------------------------|
G|-----------------------------------|
D|--------0--------0h2---------------|
A|-----2-----2------------2p0--------|
E|--3-----------3--------------------|

| F | G | F |
Een oceaan om in te schuilen
| G | F |
nooit alleen meer hoeven zijn
| G | Em |
Ik heb gesmeekt niet meer te huilen
| F |
alsjeblieft

| G | F |
Het leven jaagt geen angst meer aan
| G | F |
ik heb al zo ver moeten kruipen
| G | Em |
Het laatste stuk zal ook wel gaan
| F |
tot ik ga staan

| C | Am | Em | D |
Een oceaan om in te vluchten
| C | Am | Em | D |
nooit jaloers te hoeven zijn
| C | Am | Em | D |
Liefde om je hart te luchten
| C | Am | Em | D |
Een oceaan, alleen van mij
| C | Am | Em | D |
Een oceaan om te verzuipen
| C | Am | Em | D |
Een dag of wat een held te zijn
| C | Am | Em | D |
Laat die ander nu maar kruipen
| C | Am | Em | D |
Een oceaan vol tranen is van mij

 

<- terug naar het songoverzicht

error: Content is protected !!