RHCP – Californication

<- terug naar het songoverzicht

Niveau: xx (2/5)

Words and music by JOHN FRUSCIANTE, ANTHONY KIEDIS, CHAD SMITH, MICHAEL BALZARY.

RHCP – Californication

Intro riff:


[Intro]
 
   Am                         F
e|---------------------------|---------------------------|
B|-----0-1-------------------|---------------------------|
G|---------------------------|--------0-2----------------|
D|---2-------(2)-(0h2p0)-----|------------(0)------------|
A|-0---------------------(3)-|----3-----------(3)--------|
E|---------------------------|-1-------------------------| 2x


[Verse1]

   Am                         F
e|---------------------------|---------------------------|
B|-----0-1-------------------|---------------------------|
G|---------------------------|--------0-2----------------|
D|---2-------(2)-(0h2p0)-----|------------(0)------------|
A|-0---------------------(3)-|----3-----------(3)--------|
E|---------------------------|-1-------------------------| 2x


Psychic spies from China try to steal your mind's elation
The little girls from Sweden dream of silver screen quotations

   C             G             F              Dm
e|-------------|--------------|--------------|-----------1--|
B|-------1--0--|--------------|--------------|--------3-----|
G|-------------|--------0-----|----------2---|-----2--------|
D|----2--------|----0---------|-------3------|--0-----------|
A|-3-----------|--------------|----3---------|--------------|
E|-------------|-3----------3-|-1------------|--------------|
  
And if you want these kind of dreams it's Californication

[Instrumental]
 
   Am                         F
e|---------------------------|---------------------------|
B|-----0-1-------------------|---------------------------|
G|---------------------------|--------0-2----------------|
D|---2-------(2)-(0h2p0)-----|------------(0)------------|
A|-0---------------------(3)-|----3-----------(3)--------|
E|---------------------------|-1-------------------------| 2x



[Verse2]
 
   Am                         F
e|---------------------------|---------------------------|
B|-----0-1-------------------|---------------------------|
G|---------------------------|--------0-2----------------|
D|---2-------(2)-(0h2p0)-----|------------(0)------------|
A|-0---------------------(3)-|----3-----------(3)--------|
E|---------------------------|-1-------------------------| 2x


It's the edge of the world and all of western civilization
The sun may rise in the East at least it settles in the final 
location...

   C             G             F              Dm
e|-------------|--------------|--------------|-----------1--|
B|-------1--0--|--------------|--------------|--------3-----|
G|-------------|--------0-----|----------2---|-----2--------|
D|----2--------|----0---------|-------3------|--0-----------|
A|-3-----------|--------------|----3---------|--------------|
E|-------------|-3----------3-|-1------------|--------------|

It's understood that Hollywood sells Californication

Slagritme: | ^ ^ ^v^ ^v |

[Instrumental] (slagjes)

Am Fmaj7
Am Fmaj7

[Bridge]

Am Fmaj7
Pay your surgeon very well to break the spell of aging
Am Fmaj7
Celebrity skin is this your chin or is that war you’re waging?
Am Fmaj7
First born unicorn
Am Fmaj7
Hardcore soft porn

[Chorus]

C G Dm Am
Dream of Californication
C G Dm Am
Dream of Californication

[Instrumental]
 
   Am                         F
e|---------------------------|---------------------------|
B|-----0-1-------------------|---------------------------|
G|---------------------------|--------0-2----------------|
D|---2-------(2)-(0h2p0)-----|------------(0)------------|
A|-0---------------------(3)-|----3-----------(3)--------|
E|---------------------------|-1-------------------------| 4x


[Verse3]
 
   Am                         F
e|---------------------------|---------------------------|
B|-----0-1-------------------|---------------------------|
G|---------------------------|--------0-2----------------|
D|---2-------(2)-(0h2p0)-----|------------(0)------------|
A|-0---------------------(3)-|----3-----------(3)--------|
E|---------------------------|-1-------------------------| 2x

Marry me girl be my fairy to the world be my very own constellation
A teenage bride with a baby inside getting high on information

  C             G             F              Dm
e|-------------|--------------|--------------|-----------1--|
B|-------1--0--|--------------|--------------|--------3-----|
G|-------------|--------0-----|----------2---|-----2--------|
D|----2--------|----0---------|-------3------|--0-----------|
A|-3-----------|--------------|----3---------|--------------|
E|-------------|-3----------3-|-1------------|--------------|

And buy me a star on the boulevard it's Californication

Slagritme: | ^ ^ ^v^ ^v |

[Instrumental]

Am Fmaj7
Am Fmaj7

[Bridge]

Am Fmaj7
Born and raised by those who praise control of population
Am Fmaj7
Everybody’s been there and I don’t mean on vacation
Am Fmaj7
First born unicorn
Am Fmaj7
Hardcore soft porn

[Chorus]

C G Dm Am
Dream of Californication
C G Dm Am
Dream of Californication
C G Dm Am
Dream of Californication
C G Dm Am
Dream of Californication

[Guitar solo]

etc.

<- terug naar het songoverzicht

error: Content is protected !!