Sting – Fragile

<- terug naar het songoverzicht

Niveau: xxx (3/5)

Words and music by STING

STING – Fragile

Intro riff:

e------7p5--7----|-----7p5--7--7p5--7---------7p5---|
B---5------------|--5-------------------------------|
G----------------|----------------------------------|
D----------------|----------------------------------|
A----------------|----------------------------------|
E----------------|----------------------------------|


e------7p5--7----|-----7p5--7----7p5----------------|
B---5------------|--5-------------------------------|
G----------------|----------------------------------|
D----------------|----------------------------------|
A----------------|----------------------------------|
E----------------|----------------------------------|
Verse 1 and 2:

e----------------------|----------------------------|
B----12-----10--8--8---|--12--12----8------7--5--5--|
G----------------------|----------------------------|
D----12-----10--9--9---|--12--12----9------7--5--5--|
A----------------------|------------0---------------|
E----0-----------------|--0-------------------------|

1) If blood will flow when flesh and steel are one
2) Perhaps this final act was meant to clinch a ...
... lifetime's argument

e--------------------------------|------------------|
B---8--8----8------7--5--5--4--4-|--7------5--8-----|
G--------------------------------|------------------|
D---9--9----9------7--5--5--4--4-|--7------5--9-----|
A---0-------0--------------------|------------------|
E--------------------------------|--0---------------|

1) Drying in the colour of the evening sun
2) That nothing comes from violence and nothing ever could

e----------------------|----------------------------|
B----12-----10--8--8---|--12--12----8------7--5--5--|
G----------------------|----------------------------|
D----12-----10--9--9---|--12--12----9------7--5--5--|
A----------------------|------------0---------------|
E----0-----------------|--0-------------------------|

1) Tomorrow's rain will wash the stains awa
2) For all those born beneath an angry star

e--------------------------------|------------------|
B---8--8----8------7--5--5--4--4-|--7-------8--5----|
G--------------------------------|------------------|
D---9--9----9------7--5--5--4--4-|--7-------9--5----|
A-----------0--------------------|------------------|
E--------------------------------|--0---------------|

1) But something in our minds will always stay
2) Lest we forget how fragile we are 

Verse 3:

e--------------------|-----------------|--------------------|
B--10----10--10--8---|--8----7--8----7-|-8--7--5--5-------5-|
G--------------------|-----------------|--------------------|
D--10----10--10--9---|--9----7--9----7-|-9--7--5--5-------5-|
A--0-----------------|--0--------------|--------------------|
E--------------------|-----------------|-0------------------|

On and on...   ... the rain will fall. Like tears from a star 

e--------------------|-----------|
B--7--8----7--5--5---|-----7--8--|
G--------------------|-----------|
D--7--9----7--5--5---|-----7--9--|
A--------------------|-----------|
E-----0--------------|-----------|


Like tears from a star

e--------------------|-----------------|--------------------|
B--10----10--10--8---|--8----7--8----7-|-8--7--5--5-------5-|
G--------------------|-----------------|--------------------|
D--10----10--10--9---|--9----7--9----7-|-9--7--5--5-------5-|
A--0-----------------|--0--------------|--------------------|
E--------------------|-----------------|-0------------------|

On and on....   the rain will say.   How fragile we are

e--------------------|
B--7--8----7--5--5---|
G--------------------|
D--7--9----7--5--5---|
A--------------------|
E-----0--------------|

How fragile we are

[ SOLO ] luisteren…! En proberen na te spelen…

repeat verse 3

[ SOLO ] luisteren…! En proberen na te spelen…

<- terug naar het songoverzicht