The Black Keys – Little Black Submarines

<- terug naar het songoverzicht

Niveau: xx (2/5)

Words and music by DANGER MOUSE, PATRICK CARNEY, DAN AUERBACH.

The Black Keys – Little Black Submarines

Riff:
(bijvoorbeeld)

  Am         G         D        A
E--------------------------2-------------------
B-h1------0----0-----0------3--3-----2---------
G---2---2-------0---0---------2--2-----2--2----
D-----2-----------0--------0------------0--0---
A--0---------------------------------0---------
E--------------3------------------------------- 

  Am       G         A         A
E---------------------------------------------
B-h1---------0-------------2------------2-----
G---2--2------0--0-------2---2--------2---2---
D----2--2------0--0----2-------2----2-------2-
A--0-----------------0------------0-----------
E------------3-------------------------------- 

[Intro]

| Am | Am | Am | Am |

[Verse 1]

| Am | G |
Little black submarines
| D | A |
Operator please
| Am | G | A | A |
Put me back on the line
| Am | G |
Told my girl I’d be back
| D | A |
Operator please
| Am | G | A | A |
This is wrecking my mind

[Chorus]

| Am | G |
Oh, can it be
| D | A |
The voices calling me
| C | D | A | A |
They get lost and out of time
| Am | G |
I should’ve seen it glow
| D | A |
But everybody knows
| C | D | A | A |
That a broken heart is blind
| C | D | A | A |
That a broken heart is blind

[Verse 2]

| Am | G |
Pick you up, let you down
| D | A |
When I wanna go
| Am | G | A | A |
To a place I can hide
| Am | G |
You know me, I had plans
| D | A |
But they just disappeared
| Am | G | A | A |
To the back of my mind

[Chorus]

| Am | G |
Oh, can it be
| D | A |
The voices calling me
| C | D | A | A |
They get lost and out of time
| Am | G |
I should’ve seen it glow
| D | A |
But everybody knows
| C | D | A | A |
That a broken heart is blind
| C | D | A | A |
That a broken heart is blind

 

DISTORTED GUITAR COMES IN … (strummen van akkoorden?)

| ^ ^   ^ v ^    ^ v   |  =  | Am   G                |

[Verse 3]

| Am |  G |
Treasure maps for a change
| D | A |
Operator please
| Am | G | A | A |
Call me back when it’s time
| Am | G |
Stolen friends and disease
| D | A |
Operator please
| Am | G | A | A |
Pass me back to my mind

[Chorus]

| Am | G |
Oh, can it be
| D | A |
The voices calling me
| C | D | A | A |
They get lost and out of time
| Am | G |
I should’ve seen it glow
| D | A |
But everybody knows
| C | D | A | A |
That a broken heart is blind
| C | D | A | A |
That a broken heart is blind

[End]

| C | D | A | A |
That a broken heart is blind