The Police – Every Breath You Take

<- terug naar het songoverzicht

Niveau: xx (2/5)

Words and music by GORDON SUMNER (STING)

The Police – Every Breath You Take

 

CAPO 2nd

Voor het spelen van deze song kunnen we ‘palm muting’ toepassen. Kijk eens voordat je deze song gaat doen naar de les die gaat over ‘palm muting’. Je kan dan het beste met een plectrum spelen…

Intro :
   G                 G                 Em                Em             
E|-----------------|-----------------|-----------------|-----------------|
B|---------0-------|---------0-------|-----------------|-----------------|
G|-----2-----2---2-|-----2-----2---2-|---------0-------|---------0-------|
D|---0---0-----0---|---0---0-----0---|-----4-----4---4-|-----4-----4---4-|
A|-----------------|-----------------|---2---2-----2---|---2---2-----2---|
E|-3---------------|-3---------------|-0---------------|-0---------------| 

                      = Cadd9 2 hokjes omhoog
   Cadd9            Dadd9              G                 G            
e|-----------------|-----------------|-----------------|-----------------|
B|---------3-------|---------5-------|---------0-------|---------0-------|
G|-----0-----0---0-|-----0-----0---0-|-----2-----2---2-|-----2-----2---2-|
D|---2---2-----2---|---4---4-----4---|---0---0-----0---|---0---0-----0---|
A|-3---------------|-5---------------|-----------------|-----------------|
E|-----------------|-----------------|-3---------------|-3---------------|

 

[Intro]

|  G  |  G  |  Em |  Em |

|  C  |  D  |  G  |  G  |

 

[VERSE 1]

G                 G               Em                    Em
Every breath you take and every move you make
C                 D                Em                    Em
Every bond you break every step you take I’ll be watching you

 

[VERSE 2]

G                 G               Em                    Em
Every single day and every word you say
C                 D                Em                    Em
Every game you play every night you stay I’ll be watching you

 

[CHORUS]

C                 C                    G                    G
Oh, can’t you see you belong to me
A                 A                    D                    D
How my poor heart aches with every step you take

 

[VERSE 3]

G                 G               Em                    Em
Every move you make, every vow you break
C                 D                Em                    Em
Every smile you fake, every claim you stake, I’ll be watching you

 

[BRIDGE]

D# :  6-6-8-8-6-6          F:  8-8-10-10-8-8

|               D#               |                  D#               |      …
Since you’ve gone I’ve been lost without a trace
.          …  F                   |                  F                   |      …
I dream at night, I can only see your face
.               D#               |                  D#               |      …
I look around but it’s you I can’t replace
.               F                  |                   F                   |      …
I feel so cold and I long for your embrace
.               D#               |                  D#               |      …
I keep crying, “Baby, baby, please”

 

[INTERLUDE] (2x)

.         …  G                  |                   G                 |                Em               |                Em                |
|              C                   |                   C                 |                Em               |                Em                |

[repeat CHORUS]

[repeat VERSE 3]  (2x)

[OUTRO] (8x)

|              G                   |                   G                 |
Every breath you take and every move you make
|               Em              |                  C                  |
Every bond you break, every step you take (I’ll be watching you)

error: Content is protected !!