Triggerfinger – I Follow Rivers

<- terug naar het songoverzicht

Niveau: xxx (2/5)

Words and music by NOWELS RICK, LYKKE LI, ARNE KVALVIK.

Triggerfinger – I follow rivers

Capo 3rd.

Globale opbouw:

Stukkie 1: (verse)

| Am | Am | Em | Em | 4x
| Am | Am | G  | Em | 

 Am                  Em
E---------------------|-----------------------|---
B-----1-------1-------|-----0---------0-------|---
G----2-2-----2-2--(2)-|----0-0-------0-0--(2)-|---
D---2---2---2---2-----|---2---2-----2---2-----|---
A--0-------0----------|-----------------------|---
E---------------------|--0--------0-----------| (4x)

 Am                      G        Em
E---------------------|-----------------------|---
B-----1-------1-------|-----0---------0-------|---
G----2-2-----2-2------|----0-0-------0-0------|---
D---2---2---2---2-----|---0---0-----2---2-----|---
A--0-------0----------|-----------------------|---
E---------------------|--3--------0-----------| (1x)

Stukkie 2: (intro + chorus)

| C | Am | Em | G | 2x 

 C               Am               Em           G
E------------------------------|-----------------------------|---
B-----1-------------1----------|-----0------------0----------|---
G----0-0--(0)------2-2--(2)----|----0-0--(0)-----0-0--(0)----|---
D---2---2---(2)---2---2---(2)--|---2---2---(2)--0---0---(0)--|---
A--3-------------0-------------|-----------------------------|---
E------------------------------|--0------------3-------------| (2x)

Je kan opbouwen:

eerst de bas..
dan bas en melodie..
dan bas, melodie en ritme..
dan evt ook slagjes..  (te horen in de sample)

Slagritme: | ^ ^  ^v^  ^v |

– opname beetje een improvisatie, niet helemaal zoals oorspronkelijke volgorde maar voor het idee!

 

Ook deze song zal terugkomen in het elektrische gedeelte. Dan gaan we deze veel meer poppy/rocky aanvaren ipv klassiek!

[Intro]

| C | Am | Em | G |
| C | Am | Em | G |

[Verse]

| Am | Am | Em | Em |
Oh I beg you, can I follow
| Am | Am | Em | Em |
Oh I ask you why not always
| Am | Am | Em | Em |
Be the ocean where I unravel
| Am | Am | Em | Em |
Be my only, be the water and I’m wading
| Am | Am | G | Em |
You’re my river running high, run deep run wild

[Chorus]

| C | Am | Em |
I I follow, I follow you deep sea baby
| G |
I follow you
| C | Am | Em |
I I follow, I follow you, dark boom honey
| G |
I follow you

[Verse]

| Am | Am | Em | Em |
Here’s a message, I’m the runner
| Am | Am | Em | Em |
He’s the rebel, I’m the daughter waiting for you
| Am | Am | G   | Em |
You’re my river running high, run deep run wild

[Chorus]

| C | Am | Em |
I I follow, I follow you deep sea baby
| G |
I follow you
| C | Am | Em |
I I follow, I follow you, dark boom honey
| G |
I follow you

[Bridge]

| C | Am | Em | G |
| C | Am | Em | G |
| Am | Am | G | Em |
You’re my river running high, run deep run wild

[Chorus]

| C | Am | Em |
I I follow, I follow you deep sea baby
| G |
I follow you
| C | Am | Em |
I I follow, I follow you, dark boom honey
| G |
I follow you

[Outro]

| G |
I follow you
| G |
I follow you

error: Content is protected !!