Wyke van Weelden – I do love

<- terug naar het songoverzicht

Niveau: x (1/5)

Words and music by WYKE VAN WEELDEN.

Wyke van Weelden – I do Love

Picking Verse:

  Dm             Am            C              G
E--------1-------|----------------|----------------|---------------|
B------2---2-----|--------1-------|--------1-------|---------------|
G----3-------3---|------2--(2)----|------0---0-----|--------0------|
D--0-------------|----2------(2)--|----2-------2---|------0--(0)---|
A----------------|--0-------------|--3-------------|----2------(0)-|
E----------------|----------------|----------------|--3------------|

vingers:
         a                a                a
       m   m            m   m            m   m
     i       i        i        i       i       i  (etc.) 
   p                p                p
Picking Chorus:

  C      Em      Am            Dm             G
E----------------|----------------|--------1-------|---------------|
B----------------|--------1-------|------2---2-----|---------------|
G------0-------0-|------2---2-----|----3-------1---|--------0------|
D----2-------2---|----2-------2---|--0-------------|------0---0----|
A--3-------------|--0-------------|----------------|----2-------0--|
E---------0------|----------------|----------------|--3------------|
Picking Verse Alternatief:

  Dm             Am            C              G
E--------1----0--|----------------|----------------|---------------|
B------2---2----2|--------1----0--|--------1----0--|---------------|
G----3-------3---|------2---2----2|------0---0----0|--------0------|
D--0-------------|----2-------2---|----2-------2---|------0--------|
A----------------|--0-------------|--3-------------|----2----------|
E----------------|----------------|----------------|--3------------|

vingers:
         a    a           a    a           a    a           a
       m   m    m       m   m    m       m   m    m       m
     i       i        i        i       i       i        i
   p                p                p                p

Intro:

| Dm | Am | C | G |

Verse 1:

| Dm                         | Am
I got a better half with me
| C                       | G
But she won’t say anything
| Dm              | Am
Now you got to listen
| C                                    | G
The past won’t be lost if you’re not here

Verse 2:

| Dm           | Am
Let me tell about it
| C                | G
This wall won’t break soon
| Dm            | Am
A wall of bricks around me
| C                | G
I don’t know how to lose

Chorus:

| C  Em          | Am
I got all the time
| Dm                               | G
To be waiting that you want no longer be mine
| C  Em          | Am
I got all the time
| Dm                  | G
Because I know my heart will be fine

Verse 3:

| Dm | Am | C | G |

| Dm              | Am
Got my love to give
| C
All my love to give
| G
So much love to give

Verse 4:

| Dm           | Am
Let me tell about it
| C                | G
This wall won’t break soon
| Dm                 | Am
But if it does I will find you
| C             | G
And I will never lose

Chorus:

| C  Em          | Am
I got all the time
| Dm                                 | G
To be waiting that you want no longer be mine
| C  Em          | Am
I got all the time
| Dm             | G            | C Em   | Am
Because I know, I know my heart will be fine
| Dm     | G   | C
Will be fine

 

<- terug naar het songoverzicht

error: Content is protected !!